Oops, an error
Loading. Please wait.

A Mi Manera tab

38 views 1 this week
no commentswrite comment
1 2 3 4 5
3 more votes to show rating
add to favorites
×
Save as Personal and add changes to this tab that will be seen only by you. Learn more ›
×
You can save this tab as Personal to edit and correct it or add notes. All changes will be seen only by you. Learn more »
launch autoscroll
font size
0
reset
how to read this tab
guitar tuner
edit
Autoscroll
slow
fast
+/-
esc
set tempo
stop
Ahhhhh! que buena cancion...!
ta que esta 100% correcto!
ta bien facil y bien paja...ahi va...
_____________________________________
Notas usadas:

 A#5 D5  G5  D#5  F5
|---|---|---|---|----|
|---|---|---|---|----|
|---|-7-|---|-8-|-10-|
|-8-|-7-|-5-|-8-|-10-|
|-8-|-5-|-5-|-6-|-8--|
|-6-|---|-3-|---|----|
_____________________________________


A#5
|--------------------|
|--------------------|
|--------------------|
|-8/10-10-10-8-8-8-7-|
|--------------------|
|--------------------|

D5
|--------------------|
|--------------------|
|-8/10-10-10-8-8-8-7-|
|--------------------|
|--------------------|
|--------------------|

G5
|---------------|
|---------------|
|---------------|
|---------------|
|-5-5-5-3-3-3-5-|
|---------------|

D#5          F5
|-----------------------|
|-----------------------|
|-----------------------|
|---8---8--8---8---8--8-|
|-66--66--6--88--88--8--|
|-----------------------|

[Se repite todo]


A#5             D5
   Me dicen que me aleje de ti
G5                          D#5 F5
   Que me olvide de ti pero no, no sera asi
A#5             D5
   Me dicen que te deje ir
G5                         D#5 A#5
   Que deje de seguir pero no, no sera asi


 A#5 D5 G5 D#5 F5 <---x2


A#5
Dicen no eres de mi gusto
D5
Y que a nada me condusco
G5                                D#5           F5
Que contigo pierdo el tiempo la paciencia y mi dinero
A#5
Que lo que hago a ella no le agrada
D5
Por contrario me demigra
G5                                 D#5            F5
Que no importa lo que digan si al final es de tu vida


|-6666666666-66666668-66666666----------------------|
|-6666666666-66666668-66666666----------------------|
|---------------------------------------------------|
|-------------------------------8---8--8---8---8--8-|  x2
|-----------------------------66--66--6--88--88--8--|
|---------------------------------------------------|

A#5
Cual es tu falta conmigo
D5
Si en nada te he jodido
G5                             D#5             F5
Solo jodo a una persona...al pendejo que te explota
A#5
Y si dices no produsco
D5
a mi que chucha son mis gustos
G5                                   D#5           F5
Puede que no este de moda y esque el punk es otra onda


|-6---------------6666666666-66666668-66666666----------------------|
|-6---------------6666666666-66666668-66666666----------------------|
|-------------------------------------------------------------------|
|-----------------------------------------------8---8--8---8---8--8-|
|----4/6-6-5-3-1------------------------------66--66--6--88--88--8--|
|-------------------------------------------------------------------|


 A#5       D5       G5
|---------------------------------------------|
|---------------------------------------------|
|---------------------------------------------|
|---8-10-8----8-7-5---------------------------|  x2
|----------------------5-3-1----6-6-6-5-6-5-3-|
|---------------------------------------------|


|-666666668-666666-1111-101010-|
|-666666668-666666-1111-101010-|
|------------------------------|
|------------------------------|  x2
|------------------------------|
|------------------------------|


[esta parte se hace mas rapida]

A#5
Dicen no eres de mi gusto
D5
Y que a nada me condusco
G5                                D#5           F5
Que contigo pierdo el tiempo la paciencia y mi dinero
A#5
Que lo que hago a ella no le agrada
D5
Por contrario me demigra
G5                                 D#5            F5
Que no importa lo que digan si al final es de tu vida
A#5
Cual es tu falta conmigo
D5
Si en nada te he jodido
G5                             D#5             F5
Solo jodo a una persona...al pendejo que te explota
A#5
Y si dices que no produsco
D5
a mi que chucha son mis gustos
G5                                   D#5           F5
Puede que no este de moda y esque el punk es otra onda


A#5 D5 G5 D#5 <---x2---va con palm mute


 A#5         D5         G5             D#5      F5
|----------------------------------13-13-13-10-10-10-9-9-|
|-11---11-11-10---13-13-11---11-11-----------------------|
|--------------------------------------------------------|
|--------------------------------------------------------|
|--------------------------------------------------------|
|--------------------------------------------------------|

 A#5          D5        G5          D#5 F5
|--------------------------------------------|
|-11----------15--17/18-16-15-16---16-15-13--|
|----10-12-14--------------------------------|
|--------------------------------------------|
|--------------------------------------------|
|--------------------------------------------|

|-666666668-666666-1111-101010-|
|-666666668-666666-1111-101010-|
|------------------------------|
|------------------------------|
|------------------------------|
|------------------------------|

|-666666668-666666-1111-101010-8-6-|
|-666666668-666666-1111-101010-8-6-|
|----------------------------------|
|----------------------------------|
|----------------------------------|
|----------------------------------|

            
            
Suggest correction
Creating personal tab
Creating personal tab
You can edit any tab online and save it as your Personal.

You can edit, replace or remove any tab part or add personal notes – all changes will be seen only by you.

Personal tabs can be accessed anytime from any device, even offline.
Learn more »
Give kudos to tab author, rate the tab!
1 2 3 4 5
comments
print report bad tab
guest
Wanna post a correction for this tab? Suggest correction