Oops, an error
Loading. Please wait.

Lokomundo tab

17 views 1 this week
no commentswrite comment
1 2 3 4 5
3 more votes to show rating
add to favorites
×
Save as Personal and add changes to this tab that will be seen only by you. Learn more ›
×
You can save this tab as Personal to edit and correct it or add notes. All changes will be seen only by you. Learn more »
launch autoscroll
font size
0
reset
how to read this tab
guitar tuner
edit
Autoscroll
slow
fast
+/-
esc
set tempo
stop
Intro: A5 C#5 D5 E5 x2
|---------------------------------------------------|
|---------------------------------------------------|
|---------------------------------------------------|
|---------------------------------------------------| x2
|-00-44-77-44--00-44-77-44--00-44-77-44-77-55-44----|
|------------------------------------------------77-|


 A5 F#5 E5 D5

 A5 E5 D5 C#5

 A5 F#5 E5 D5

 A5 E5 D5 C#5


 D5.........E5............
|-------------------------|
|-------------------------|
|-------------------------|
|-----------------6-6-6-7-|
|-----------7-7-7---------|
|-------------------------|


A5
me gusta vivir ropiendo reglas
C#5
con tal de ser feliz como las huevas
D5
dicen que en mi falta una tuerca
E5
libre nunca fui y eso marea
A5                                        PM................
este mundo esta ya de cabeza <------------|-----------------|
C#5                                       |-----------------|
la gente loca esta y eso me cuentas       |-9-9-7-7-6-6-----|x7
D5                                        |-------------7-7-|
siento que voy a estallar                 |-----------------|
E5                                        |-----------------|
con esta sociedad seria algo normal


D5             E5        A5
y es que nunca pude encajar en esta loca sociedad
D5       E5              A5
a veces siento estar de mas montado en mi estrella fugaz
D5       E5              A5        G#5
volando hacia un mundo donde nadie pueda molestar
 D5    E5        A5
siendo yo de verdad

A5
|-----------------|
|-----------------|
|-----------------|
|-----------------|
|-7-7-5-5-4-4-----|
|-------------7-7-|

Intro

A5
estoy cansado de sentir el miedo
C#5
de que sera de mi en un futuro incierto
D5
quiero en paz vivir y si no estas de acuerdo
E5
talves te guste ver mi dedo medio
A5                             <---[1]
quiero ser feliz a mi manera
C#5
siendo la persona que yo quiera
D5
sentir la libertad dentro de mis venas
E5
y si eso es mucho pedir en esta sociedad de mierda

 [1]
|-----------------------------------------
|-----------------------------------------
|-----------------------------------------
|----7----7----7----7----7----7----9----9-
|-55---55---55---55---55---55---55---55---
|-----------------------------------------
|
|-----------------------------------------
|-----------------------------------------
|-----------------------------------------
|----7----7----7----7----7----7--99999999-
|-55---55---55---55---55---55-------------
|-----------------------------------------


D5             E5        A5
y es que nunca pude encajar en esta loca sociedad
D5       E5              A5
a veces siento estar de mas montado en mi estrella fugaz
D5       E5              A5        G#5
volando hacia un mundo donde nadie pueda molestar
 D5    E5        A5
siendo yo de verdad

A5
|-----------------|
|-----------------|
|-----------------|
|-----------------|
|-7-7-5-5-4-4-----|
|-------------7-7-|


 A5 F#5 E5 D5

 A5 E5 D5 C#5

 A5 F#5 E5 D5

 A5 E5 D5 C#5

D5             E5        A5
y es que nunca pude encajar en esta loca sociedad

a veces siento estar de mas montado en mi estrella fugaz
D5       E5              A5        G#5
volando hacia un mundo donde nadie pueda molestar
 D5    E5        A5
siendo yo de verdad


A5 C#5 D5 E5
Siendo yo de verdad <---varias verces

            
            
Suggest correction
Creating personal tab
Creating personal tab
You can edit any tab online and save it as your Personal.

You can edit, replace or remove any tab part or add personal notes – all changes will be seen only by you.

Personal tabs can be accessed anytime from any device, even offline.
Learn more »
Give kudos to tab author, rate the tab!
1 2 3 4 5
comments
print report bad tab
guest
Wanna post a correction for this tab? Suggest correction