Oops, an error
Loading. Please wait.

Las Divinas tab

99 views 1 this week
no commentswrite comment
1 2 3 4 5
3 more votes to show rating
add to favorites
×
Save as Personal and add changes to this tab that will be seen only by you. Learn more ›
×
You can save this tab as Personal to edit and correct it or add notes. All changes will be seen only by you. Learn more »
launch autoscroll
font size
0
reset
how to read this tab
guitar tuner
edit
Autoscroll
slow
fast
+/-
esc
set tempo
stop
                          Agus_corty@
-------------------------------------------10h12p10-
-7/9-7----------10/12-10-8-----------10/12----------
-------9--7-9-9------------7/9-7-9-9----------------
----------------------------------------------------
----------------------------------------------------
----------------------------------------------------

----------------------------------------------------
-12-10-12-10-------------10/12-10-8-----7-8-7~------
-------------12-11-7/9-9------------7/9--------9~---
----------------------------------------------------
----------------------------------------------------
----------------------------------------------------

Em                 B
Nadie pasa de esta esquina
      Am          B
aquí mandan las divinas
       Em         B
porque somos gasolina
     C    D    Em
gasolina de verdad

Em               B
Todos saben quien manda en esta school
Am                   B
Porque nosotras somos gente cool
 Em
gente que siente
      B
con sangre caliente
Am                  B
que quiere hacerse oir
Em               B
Sea como sea aqui no entran feas
Am                 B
pa´que lo veas te voy a mostrar
Em              B
mira esa fea aquella otra fea
Am              B
aqui no puede entrar

Nadie pasa de esta esquina
aquí mandan las divinas
porque somos gasolina
gasolina de verdad

Nosotras bailamos bien you know?
dance, dance y mucho dance
lo que pide tu corazón
your heart, your heart
a ti te vamos a dar
Las divinas, las divinas
brillan, brillan como stars
fuera feas, fuera feas
para ustedes no hay lugar

Nadie pasa de esta esquina
aquí mandan las divinas
porque somos gasolina
gasolina de verdad
------------11-9-13~-----/---13/16-13/15-13~----
-------10-8--------------/----------------------
-7/9-7-------------------/----------------------
-------------------------/----------------------
-------------------------/----------------------
-------------------------/----------------------


--------------------/---10/13-10/12-10p9p8----------
-----10p8-----------/-------------------------------
-7/9------9-7-9-7~--/-------------------------------
--------------------/-------------------------------
--------------------/-------------------------------
-------------x2-----/---------------------x2--------

x 4

Gasolina de verdad, gasolina de verdad.


Jaja ta de 10 pero me quedo con iron maiden aver quien toca the trooper
Jajaj bueno los acordes los puse porq no me parese que esten mal pero el
punteo lo tube que sacar yo porq ninguno sonava bn jaja
Suerte y token mucho
AGUSTIN CORTY  agus_corty@
Suggest correction
Creating personal tab
Creating personal tab
You can edit any tab online and save it as your Personal.

You can edit, replace or remove any tab part or add personal notes – all changes will be seen only by you.

Personal tabs can be accessed anytime from any device, even offline.
Learn more »
Give kudos to tab author, rate the tab!
1 2 3 4 5
comments
print report bad tab
guest
Wanna post a correction for this tab? Suggest correction