Oops, an error
Loading. Please wait.

Forget Me Nots Bass Tab

version 1
version 1

Whole song

Interactive

37,983 views 129 this week
1 commentread comment
1 2 3 4 5
accurate
x 13
add to favorites
launch autoscroll
font size
0
reset
guitar tuner
Autoscroll
slow
fast
+/-
esc
set tempo
stop
Help us to improve Ultimate-Guitar.com Take our survey!
×
Author
Difficulty
intermediate
Patrice Rushen - Forget Me Nots
Standard Tuning: EADG
Tabbey By: RTBM

It's all here enjoy the original!! 
                                                 ending     ending  
[Main theme] 4x  a                    b          b1ste 1x    b2de 3x
G|---------7-------------------|------7---------1---|------------|-----------|
D|----4------------------2-2-4-|--4------0h2h444-4--|------2-2h4-|----2-4-2--|
A|------2/5-5-5-7-7-2-4-4------|---2/5-5----------2-|-2-4-4------|-2-4-4---4-|
E|-0h2-------------------------|-2------------------|------------|-----------|

[Verse] 4x
G|----7-----------------------------------------------|
D|---------------------2-2h4--4-------4---------------|
A|-4/5-5-5-5-7-7\-2-4-4-------------------------------|
E|---------------------------2-2-0-0h2-2-0-5-7p5h7-2--|

[Break ]
G|---------------------------------------------------------|
D|-2-2------------------2-2----2-2-------------------2h4---|
A|----2--------------------(2)----2------------------------|
E|-----0-3-3-0-0-3-2-0-3-----------0-3-3-0-0-3-2-0-3-------|


************************************

| (n)  Ghost note
| h    Hammer-on
| p    Pull-off
| /    Slide up
| \    Slide down

************************************
Suggest correction
comments
print report bad tab
1 comment total.
0 reply
2amsterg 10 wrote on June 30 2014, 03:57 pm

Lack of accuracy. Clearly wrong.

guest
You may want to rate the tab now too:
select rating
Please do not post tabs as comments. Select "correction" instead!