Oops, an error
Loading. Please wait.

El Cautivo De Til-Til tab

767 views 3 this week
no commentswrite comment
1 2 3 4 5
3 more votes to show rating
add to favorites
×
Save as Personal and add changes to this tab that will be seen only by you. Learn more ›
×
You can save this tab as Personal to edit and correct it or add notes. All changes will be seen only by you. Learn more »
launch autoscroll
font size
0
reset
how to read this tab
guitar tuner
edit
Autoscroll
slow
fast
+/-
esc
set tempo
stop
Capodastro 1° espacio
Intro:
e---7-7---8-8---2-2---7-7---0-0---5-5---------3-4/7-|
B--0-0-0-0-0-0-0-0-0-0-0-0-1-1-1-0-0-0--4-4--0-0----|
G--------------------------------------2-2-2--------|
D-6-----7-----4-----5-----------3-------------------|
A-------------------------3-----------2-------------|
E-------------------------------------------0-------|

e---7-7---8-8---2-2---7-7---0-0---5-5--------0------|
B--0-0-0-0-0-0-0-0-0-0-0-0-1-1-1-0-0-0--4-4--0------|
G--------------------------------------2-2-2-0------|
D-6-----7-----4-----5-----------3------------2------|
A-------------------------3-----------2------2------|
E--------------------------------------------0------|


A) Em              B7
Por unas pupilas claras
                  Em               G
que entre muchos sables viera relucir
                     D
y esa risa que escondía
       Ad                    Em
no sé qué secretos, si era para mí.
Am                    D
Cuando altivo se marchó
B7                    C
entre gritos de alguacil
Am                   Am/G
me nubló un presentimiento
   F#        B7
al verlo partir.

A) Dicen que es Manuel Rodríguez
y que se lo llevan camino a Til-Til
que el gobernador no quiere ver
por la cañada su porte gentil.
Dicen que en la guerra fue
el mejor, y en la ciudad
le llaman el guerrillero
 F#    B7   Em
de la libertad.

B) G               F#m
Sólo sé que ausente va
 G                   F#m
que le llevan los soldados
 C                  Em/B
que amarrado a la montura
              D             B7
la tropa le aleja de su general.
 G                   F#m
Sólo sé que el viento va
 G                  F#m
jugueteando en sus cabellos
 C                       Em/B
y que el sol brilla en sus ojos
              D          B7
cuando le conducen camino a Til-Til.

Intro

A) Dicen que era como un rayo
cuando galopaba sobre su corcel
y que al paso del jinete
todos murmuraban su nombre: Manuel.
Yo no sé si volveré
a verle libre y gentil
sólo sé que sonreía
camino a Til-Til.

Acordes
   Ad   Am/G   Em/B
e---2------------------
B---1----1-------------
G---2----2-------------
D---1----2-------------
A---------------2------
E--------3-------------

            
            
Suggest correction
Creating personal tab
Creating personal tab
You can edit any tab online and save it as your Personal.

You can edit, replace or remove any tab part or add personal notes – all changes will be seen only by you.

Personal tabs can be accessed anytime from any device, even offline.
Learn more »
Give kudos to tab author, rate the tab!
1 2 3 4 5
comments
print report bad tab
guest
Wanna post a correction for this tab? Suggest correction