Oops, an error
Loading. Please wait.

Como Las Aguilas tab

81 views 1 this week
no commentswrite comment
1 2 3 4 5
3 more votes to show rating
add to favorites
×
Save as Personal and add changes to this tab that will be seen only by you. Learn more ›
×
You can save this tab as Personal to edit and correct it or add notes. All changes will be seen only by you. Learn more »
launch autoscroll
font size
0
reset
how to read this tab
guitar tuner
edit
Autoscroll
slow
fast
+/-
esc
set tempo
stop
Hola hermanos en cristo, no he podido dejar muchos solos
ukltimamente pero haora si me dedicare a hacerlo seguidamente..
buen ohai les va mi segundo tab que transcribo..
cualkier consulta pueden agregarme a mi correo :Saint-kj@
tambien agregenme los que tienes otros solos asi intercambiamos
tablaturas.
la gloria sea de Dios y a el toda alabanza...bendiciones.
a los numeros que tienen (*) se hace usando una tecnica llamada
bend up que se hace estirando la cuerda para arriba..eso es todo
bendiciones a todos !!! cristo te ama!

(0:05)
e|-----------------7/8~--7-----------------------------------|
B|-----------8------------8/10~--10/8------------------------|
G|------9-9-----9--------------------7/9/7----7--------------|
D|-----------------------------------------10---10--9--7~----|
A|-----------------------------------------------------------|
E|-----------------------------------------------------------|


(0:12)
e|-------------7/8~--7-------------------------------------|
B|--------8------------8/10~--10-13~--13-13-13/8--(8)------|
G|------9---9----------------------------------------------|
D|---------------------------------------------------------|
A|---------------------------------------------------------|
E|---------------------------------------------------------|


Solo:
(1:44)
e|---------------------|
B|---------------------|
G|------2--0--2--------|
D|---------------------|
A|---------------------|
E|---------------------|

(1:47)
e|------------------------5~----8p5/3--------|
B|------8--10-10-10~--8~---------------------|
G|-------------------------------------------|
D|-------------------------------------------|
A|-------------------------------------------|
E|-------------------------------------------|

(1:51)
e|-----------------------------------------------------------|
B|-------5/8--5-5--3-3-----3--------------10~----10~---------|
G|---------------------5-5---5--2/9--12-9----12~-------------|
D|-----------------------------------------------------------|
A|-----------------------------------------------------------|
E|-----------------------------------------------------------|

e|-----------------15----------------------------------------|
B|-----------13-15--------(15)(15)(15)-13-(15)---------------|
G|--------14-------------------------------------------------|
D|-----------------------------------------------------------|
A|-----------------------------------------------------------|
E|-----------------------------------------------------------|


Bendiciones ! =)
Suggest correction
Creating personal tab
Creating personal tab
You can edit any tab online and save it as your Personal.

You can edit, replace or remove any tab part or add personal notes – all changes will be seen only by you.

Personal tabs can be accessed anytime from any device, even offline.
Learn more »
Give kudos to tab author, rate the tab!
1 2 3 4 5
comments
print report bad tab
guest
Wanna post a correction for this tab? Suggest correction