Oops, an error
Loading. Please wait.

Blues De La Libertad tab

148 views 3 this week
no commentswrite comment
1 2 3 4 5
3 more votes to show rating
add to favorites
×
Save as Personal and add changes to this tab that will be seen only by you. Learn more ›
×
You can save this tab as Personal to edit and correct it or add notes. All changes will be seen only by you. Learn more »
launch autoscroll
font size
0
reset
how to read this tab
guitar tuner
edit
Autoscroll
slow
fast
+/-
esc
set tempo
stop
Intro:

guitarra:
    RE7                  DO7              SOL 7         DO7      SOL7 - SOL9    RE7     FA#7  G7 
E|------------------|---------------|--------------|----------|------10------|------------------|
B|-----3------3-----|----1------1---|-------8------|----1-----|------10------|-3-3-3--3/7--7/-8-|
G|----5-5----5-5----|---3-3----3-3--|-----10-10----|---3-3----|---10----10---|-5-5-5--5/9--9/10-|
D|---4---4--4---4---|--2---2--2---2-|/---9------9/-|--2---2-/-|--9---------9/|-4-4-4--4/8--8/-9-|
A|--5-----5-------/-|-3-----3-------|/-10--------/-|-3------/-|10-----------/|-5-5-5--5/9--9/10-|
E|------------------|---------------|--------------|----------|--------------|------------------|

BAJO:                    entra acá=>     SOL          DO         SOL            RE        Fa# SOl
G|------------------|---------------|--------------|----------|--------------|------------------|
D|------------------|---------------|--------------|----------|--------------|------------------|
A|------------------|---------------|-----------1-2|(3)-------|----------3-4-|(5)5-5--5/--------|
E|------------------|---------------|-(3)----------|-------5-4|(3)-----------|-------------2/3--|


VERSO 1:

       SOl9                (DO7-DO9)
Mi amor, la libertad es fiebre, 
     SOL9                   (DO7_DO9)
es oración, fastidio y buena suerte.


Guitarra :
  MI amor...  SOL9       (DO7-DO9)    SOL9          SOL7          (DO7_DO9)
E|-----------10--------|-(0)--3------|--------10----------------|--------3-------||
B|-----------10-\-x----|-(1)--3-3/2--|/----10---10----------(10)|---------3------||
G|-----------10-\-x----|-(3)---------|/--10-------10-----10-(10)|-----3----3-----||
D|------------9-\-x----|-(2)---------|/-9---------------9-------|---2------------||
A|---------------------|-(3)---------|----------------10--------|-3----------(3)-||
E|---------------------|-------------|--------------------------|----------------||

BAJO:     SOL            DO                SOL                      DO
G|-----------------|---|---------|---|-------------------|------|----------------||
D|-----------------|---|---2-5-2-|---|-------------------|------|---2--5--2------||
A|----------2-5-2--|5-4|-3-------|---|-----2--5--2-------|-5--4-|-3--------------||
E|-------3---------|---|---------|5-4|--3----------------|------|----------------||


ESTRIBILLO 1:

DO9                        puente1
que está invitando a zozobrar.
RE9            puente 2     DO9
Otra vulgaridad social igual, 
siempre igual, todo igual
           RE9
todo lo mismo...


guitarra:
         DO9                  puente1     RE9          puente2    DO9          RE7      FA#  SOL7
E|--------------3-------3---|--------|---5-------5---|---------|---3------3--|----------x-9/(10)|
B|-----(1)-----3-3-----3-3--|--------|--5-5-----5-5--|---------|--3-3----3-3-|-3333333--x-9/(10)|
G|-----(3)----3---3---3---3-|--------|-5---5---5---5-|---------|-3---3--3---3|-5555555-%x-9/(10)|
D|-----(2)----------2-------|--------|---------------|---------|-------------|-4444444--x-8/-9--|
A|-----(3)--3---------------|-3-4-(5)|-------5-------|-5-4-(3)-|-------3-----|-5555555--x-------|
E|--------------------------|--------|---------------|---------|-------------|----------x-------|

BAJO:   DO                   puente1           RE       puente2      do           re      fa#sol
G|--------------------------|--------|---------------|---------|-------------|----------x-------|
D|---------2--5--2----------|--------|--4---7---4----|---------|--2--5--2----|----------x-------|
A|1-2--3--------------------|-3-4--5-|---------------|-5-4--3--|-------------|-5555555--x-------|
E|--------------------------|--------|---------------|---------|-------------|----------x-2/3---|


* los puentes tambien los hace el saxo.


VERSO 2: (igual)

   SOl9                (DO7-DO9)
Mi amor, la libertad no es fantástica.
   SOl9                (DO7-DO9)
No es tormenta mental que da el prestigio loco


ESTRIBILLO 2 (igual) y engancha con el solo de saxo

Es mar gruesa y oscuridad.
Y el chasquido que quiere proteger
ese grito que no es
todo el grito...

guitarra:
         DO9                  puente1     RE9          puente2    DO9          RE7     y engancha
E|--------------3-------3---|--------|---5-------5---|---------|---3------3--|-----------------|
B|-----(1)-----3-3-----3-3--|--------|--5-5-----5-5--|---------|--3-3----3-3-|-3-3-3-3-3-3-3---|
G|-----(3)----3---3---3---3-|--------|-5---5---5---5-|---------|-3---3--3---3|-5-5-5-5-5-5-5-%-|
D|-----(2)----------2-------|--------|---------------|---------|-------------|-4-4-4-4-4-4-4---|
A|-----(3)--3---------------|-3-4-(5)|-------5-------|-5-4-(3)-|-------3-----|-5-5-5-5-5-5-5---|
E|--------------------------|--------|---------------|---------|-------------|-----------------|

SOLO DE SAXO:

BAJO: (durante el solo)
          SOL            DO                SOL                       SOL
G|-----------------|---|------------|---|-------------------|------|----------------||
D|-----------------|---|----2--5--2-|---|-------------------|------|----------------||
A|----------2-5-2--|5-4|-3----------|---|-----2--5--2-------|------|---2--5--2---5-4||
E|-------3---------|---|------------|5-4|--3----------------|-5--4-|-3--------------||

guitarra 2:          PUNTEO 1
e|-----------------|----------------|---|-------------------|------|----------------||
B|-----------------|-----------13b--|---|-------------------|------|----------------||
G|-----------------|--12-15-17------|15-|(12)~~-------------|------|----------------||
D|-----------------|----------------|---|-------------------|------|----------------||
A|-----------------|----------------|---|-------------------|------|----------------||
E|-----------------|----------------|---|-------------------|------|----------------||

Guitarra 1: [SOL-DO-SOL-SOL]


SOLO DE GUITARRA:

BAJO: (Durante el solo)
    DO                   DO                 SOL (4 compaces)
G|-----------------|---|------------|---|------------------------------------------------|---
D|----2--5--2------|---|----2--5--2-|---|----------------3333-------------------3333-----|---
A|-3---------------|5-4|-3----------|---|------------2-5------5-2-----------2-5------5---|---
E|-----------------|---|------------|5-4|--3-3-3-3-3--------------3-3-3-3-3--------------|---
         RE               DO                    FINAL (LICK de Blues)                fa# sol
G|---|-------------|---|------------|---|------------|-------------------|----------|-----||
D|---|-----4--7--4-|---|----2--5--2-|---|------------|-------------------|----------|-----||
A|3-4|-(5)---------|5-4|-3----------|---|------------|-------------------|-3-4-(5)--|-----||
E|---|-------------|---|------------|5-4|--3-3-3-3-3-|--7--7-6--6-5--5-3-|----------|-2/3-||
 

GUITARRA 1 (de base):

[(DO)X2   (SOL)X4   (RE)x1   (DO)x1   SOL    y lick de blues ]  [fa#9_sol9]

Lick de blues
                                      [FA#9_SOL9]
E|---7-----6-----5---------|--------|-x-9/-(10)-|
B|-------------------------|--------|-x-9/-(10)-|
G|-7---7-6---6-5---4p0-----|--------|-x-9/-(10)-|
D|---------------------(5)-|--------|-x-8---(9)-|
A|-------------------------|3-4-(5)-|-x---------|
E|-------------------------|--------|-x---------|


Solo: (guitarra)
    DO                                    DO                       SOL
E|---------------------------|-----|-------------.-----14--------|---------------------------|
B|---------------------------|-----|-15~--13~----.-13b----13br---|---------------------------|
G|-------12-(14b)-(14b)--(12)|-\-/-|---------15~-.-12b--------15-|12-12b-12b-12b-12b-12b-12b-|
D|-12-14---------------------|-----|-------------.---------------|---------------------------|
A|---------------------------|-----|-------------.---------------|---------------------------|
E|---------------------------|-----|-------------.---------------|---------------------------|
   SOL       SOL       mas rapido x 3           SOL                                 RE
E|-----------------.||------------------||--|---------------------------,---------|-----------|
B|-----------------.||------------------||--|---------------------------,---------|-----------|
G|-----12--------12.||------12--------12||x3|------12--14p12----12~--/-\,------12-|-14~--/-\--|
D|12h15----12h15---.||-12h15----12h15---||--|-12h15----------12---------,-12-14---|-----------|
A|-----------------.||------------------||--|---------------------------,---------|-----------|
E|-----------------.||------------------||--|---------------------------,---------|-----------|
     RE                                             DO
E|---------------------------.-------------------|--------------------------------|----
B|---------------------------.-------------------|--------------------------------|----
G|-12h11-12h11--12h11--------.-------------12-14/|(15)~-14~--12-/-\-------12~--/--|----
D|--------------------(12)~~-.-/1\--12-14--------|------------------14~-----------|----
A|---------------------------.-------------------|--------------------------------|----
E|---------------------------.-------------------|--------------------------------|----
          lick                          [FA#9_SOL9]
E|---7-----6-----5---------|--------|-5--9----9/-(10)-|
B|-------------------------|--------|-5--9----9/-(10)-|
G|-7---7-6---6-5---4p0-----|--------|-5--9----9/-(10)-|
D|---------------------(5)-|--------|-4--8----8/--(9)-| fin
A|-------------------------|3-4-(5)-|-5---------------|
E|-------------------------|--------|-----------------|


VERSO 3 (igual)


Mi amor, la libertad es fanática, 
ha visto tanto hermano muerto, 
tanto amigo enloquecido, 

ESTRIBILLO 3 (igual)

que ya no puede soportar
la pendejada de que todo es igual, 
siempre igual, todo igual
todo lo mismo...


VERSO 4 (igual)

       SOl9                (DO7-DO9)
Mi amor, la libertad es fiebre, 
     SOL9                   (DO7_DO9)
es oración, fastidio y buena suerte.


ESTRIBILLO 4 (igual a estribillo 2)


DO9                        puente1
que está invitando a zozobrar.
RE9            puente 2     DO9
Otra vulgaridad social igual, 
siempre igual, todo igual
           RE9
todo lo mismo...


SOLO DE SAXO; 2 (igual)


BAJO: (durante el solo)
          SOL            DO                SOL                       SOL
G|-----------------|---|--------------|---|-------------------|------|----------------||
D|-----------------|---|----2--5--2---|---|-------------------|------|----------------||
A|----------2-5-2--|5-4|-3------------|---|-----2--5--2-------|------|---2--5--2---5-4||
E|-------3---------|---|--------------|5-4|--3----------------|-5--4-|-3--------------||

guitarra 2:          PUNTEO 2
e|-----------------|------------------|---|-------------------|------|----------------||
B|-----------------|--------13-13-13b-|---|-------------------|------|----------------||
G|-----------------|--12-15-----------|12-|(15)~~-------------|------|----------------||
D|-----------------|------------------|---|-------------------|------|----------------||
A|-----------------|------------------|---|-------------------|------|----------------||
E|-----------------|------------------|---|-------------------|------|----------------||


SOLO DE GUITARRA 2:


BAJO: (Durante el solo)
    DO                   DO                 SOL (4 compaces)
G|-----------------|---|------------|---|------------------------------------------------|---
D|----2--5--2------|---|----2--5--2-|---|----------------3333-------------------3333-----|---
A|-3---------------|5-4|-3----------|---|------------2-5------5-2-----------2-5------5---|---
E|-----------------|---|------------|5-4|--3-3-3-3-3--------------3-3-3-3-3--------------|---
         RE               DO                  SOL          y  FINAL 
G|---|-------------|---|------------|---|------------||
D|---|-----4--7--4-|---|----2--5--2-|---|------------||
A|3-4|-(5)---------|5-4|-3----------|---|------------||
E|---|-------------|---|------------|5-4|--3-3-3-3-3-||
 

GUITARRA 1 (de base):

[(DO)X2   (SOL)X4   (RE)x1   (DO)x1   SOL ]  y final


SOLO 2: (hay partes donde es distinto del primero, pero la mayoria es igual)

  DO                                    DO                       SOL
E|---------------------------|-----|-------------.-----14--------|---------------------------|
B|---------------------------|-----|-15~--13~----.-13b----13br---|---------------------------|
G|-------12-(14b)-(14b)--(12)|-\-/-|---------15~-.-12b--------15-|12-12b-12b-12b-12b-12b-12b-|
D|-12-14---------------------|-----|-------------.---------------|---------------------------|
A|---------------------------|-----|-------------.---------------|---------------------------|
E|---------------------------|-----|-------------.---------------|---------------------------|
      sol *               SOL               mas rapido x 4           SOL       RE
E|-------------------|-----------------.||------------------||--|----------|-----------|
B|-------------------|-----------------.||------------------||--|----------|-----------|
G|-------------------|-----12--------12.||------12--------12||x4|------12--|-14~--/-\--|
D|-------------------|12h15----12h15---.||-12h15----12h15---||--|-12h15----|-----------|
A|-------------------|-----------------.||------------------||--|----------|-----------|
E|-------------------|-----------------.||------------------||--|----------|-----------|
    RE                                                    DO
E|---------------------------.-------------------|--------------------------------|----
B|---------------------------.-------------------|--------------------------------|----
G|-12h11-12h11--12h11--------.-------------12-14/|(15)~-14~--12-/-\-------12~--/--|----y fiNAL
D|--------------------(12)~~-.-/1\--12-14--------|------------------14~-----------|----
A|---------------------------.-------------------|--------------------------------|----
E|---------------------------.-------------------|--------------------------------|----
 
FINAL:

guitarra 1 y 2: (con el lick de blues)
                              RE#9    RE9
E|---7-----6-----5---------|---6----|-5-5-5-5|
B|-------------------------|---6----|-5-5-5-5|
G|-7---7-6---6-5---5-------|---6----|-5-5-5-5|
D|---------------------(5)-|---5----|-4-4-4-4| fin
A|-------------------------|--------|--------|
E|-------------------------|--------|--------|

bajo;
G|-------------------------|--------|--------|
D|-------------------------|--------|--------| fin
A|-------------------------|--(6)---|(5)-----|
E|--7---7-6---6-5---5-3----|--------|--------|


fin

            
            
Suggest correction
Creating personal tab
Creating personal tab
You can edit any tab online and save it as your Personal.

You can edit, replace or remove any tab part or add personal notes – all changes will be seen only by you.

Personal tabs can be accessed anytime from any device, even offline.
Learn more »
Give kudos to tab author, rate the tab!
1 2 3 4 5
comments
print report bad tab
guest
Wanna post a correction for this tab? Suggest correction