Oops, an error
Loading. Please wait.

El Arte Del Buen Comer bass

140 views 3 this week
no commentswrite comment
1 2 3 4 5
3 more votes to show rating
add to favorites
×
Save as Personal and add changes to this tab that will be seen only by you. Learn more ›
×
You can save this tab as Personal to edit and correct it or add notes. All changes will be seen only by you. Learn more »
launch autoscroll
font size
0
reset
guitar tuner
edit
Autoscroll
slow
fast
+/-
esc
set tempo
stop
Tablatura en bajo de El arte del buen comer

Patricio Rey y sus Redonditos de Ricota


G|---------------------------|
D|---------------------------|
A|--------------------------1|
E|-0-0-3-3-0-0-3-3-0-0-3-3-0-|

G|---------------------------|
D|---------------------------|
A|--------------------2------|
E|-0-0-3-3-0-0-3-3-0---------|

Empieza cantar y suena lo mismo que la intro. Después se agrega?

G|----------------------------------|
D|----------------------------------|
A|----------2222-2-2---0-0----------|
E|-222222220---------------3-3-2-2-0|

Segunda estrofa, pero esta vez no hace la escalera.
Se queda en Bb ATENTI!!!

G|--------------------------------|
D|--------------------------------|
A|----------2222-2-2-2------------|
E|-222222220----------------------|

Estribo:

G|-------------------------------------------------------|
D|-------------------------------------------------------|
A|---33333---0000--3333-2222--0000--2222--3333--2222-----|
E|-------------------------------------------------------|

G|----------------------------------|
D|----------------------------------|
A|---------------2-2---0-0----------|
E|-------------------------3-3-2-2-0|

La próxima vuelta igual hasta la parte del saxo?


Solo de saxo

G|---------------------------|
D|---------------------------|
A|--000000-----233-344-433---|
E|---------00----------------|

G|---------------------------------------|
D|---------------------------------------|
A|---000000-333333-22222---22-00---------|
E|-------------------------------33-22-0-|


G|------------------------------------|
D|------------------------------------|
A|------------------------------------|
E|-0--00--000--00--000--00--000-00-000|

G|------------------------------------|
D|------------------------------------|
A|-33333333--22222--22-00-------------|
E|------------------------33-22-0-----|

Acá empieza de nuevo que al principio

Y después finaliza en:

G|---------------------|
D|---------------------|
A|--2-2---0-0----------|
E|------------3-3-2-2-0|


Más o menos es así. Aclaraciones.
Donde hay muchas notas juntas no quiere decir que sean
esas las cantidades exactas. Si me pongo a contar
la cantidad de notas exactas, me muero de un infarto.
De más esta decir que tienen que escuchar mucho el tema.
Si alguien lo puede mejorar les agradezco, me manden una
copia o me avisen  cuando la suban.
Comentarios, sugerencias y otras yerbas al siguiente e-mail
andresdelvecchio@

Gracias?
Suggest correction
Creating personal tab
Creating personal tab
You can edit any tab online and save it as your Personal.

You can edit, replace or remove any tab part or add personal notes – all changes will be seen only by you.

Personal tabs can be accessed anytime from any device, even offline.
Learn more »
Give kudos to tab author, rate the tab!
1 2 3 4 5
comments
print report bad tab
guest
Wanna post a correction for this tab? Suggest correction