Oops, an error
Loading. Please wait.

El Pibe De Los Astilleros tab

version 3
version 3

Whole song

Interactive

92 views 1 this week
no commentswrite comment
1 2 3 4 5
3 more votes to show rating
add to favorites
×
Save as Personal and add changes to this tab that will be seen only by you. Learn more ›
×
You can save this tab as Personal to edit and correct it or add notes. All changes will be seen only by you. Learn more »
launch autoscroll
font size
0
reset
how to read this tab
guitar tuner
backing track
0:00
0:00
edit
Autoscroll
slow
fast
+/-
esc
set tempo
stop
EL PIBE DE LOS ASTILLEROS - PATRICIO REY Y SUS REDONDITOS DE RICOTA

Intro x2

Viola 1
e|------------------------------------------------------------------
B|------------------------------------------------------------------
G|--9-9-7h9p7------------------------9-9-7h9p7----------------------
D|-----------9-9~--5-7-7p5---5-----------------9-9~~--5-7-7p5-------
A|-------------------------7---7-5----------------------------7-7~~-
E|---------------------------------7--------------------------------

Viola 2
e|--7-7-5h7p5---------------------------7-7-5h7p5----------------------
B|------------7-7~~--3-5-5p3---3------------------7-7~~--3-5-5p3-------
G|---------------------------4---4-2-----------------------------4-4~~-
D|-----------------------------------4---------------------------------
A|---------------------------------------------------------------------
E|---------------------------------------------------------------------


Verso
  Em           G         C            D
Fue unos meses a Caseros y su strato roja,
Em                       G        C               D
  se hizo el torbellino que hoy suena en la radio
 Em        G       C          D
La ceniza no caía desde su cigarro
     Em         D     C
y estaba en sus ojos desarmándote


** Intro **


Alquiló una rana rubia, tibia y haragana
¡Se moría de ganas de matarla!
Una linda damita de Concordia:
el más bello fuselaje que jamás lustró


** Intro **

Coro

Riff1                 Riff2              Riff3                      Riff4
e|--8p5-------       |--5----------       |--7h8-7-7~~-      |--7~~-
B|------8-7~~-       |----h7-5-4~~-        |------------           |------
G|------------           |-------------        |------------           |------
D|------------           |-------------        |------------           |------
A|------------           |-------------        |------------           |------
E|------------           |-------------        |------------           |------

B7                      C          A y Riff1
  Le hizo un par de promesas imprudentes
B7                 C             A y Riff2
  y así fue que de ella se aburrió
B7            C           A y Riff3
  Las minitas aman los payasos
B7            C  D y Riff4
  y la pasta de campeón


** Intro **


Verso

Riff 5                  Riff 6                               Riff 7
e|---------------       |--------------11-11/12~~-       |--17b-17b-17~~-
B|--10b----------      |--15-12-15-12------------       |---------------
G|-------12-12~~-       |-------------------------       |---------------
D|---------------       |-------------------------       |---------------
A|---------------       |-------------------------       |---------------
E|---------------       |-------------------------       |---------------

Riff 8
e|--3-0---0--0---------------------
B|------0---3--3-0--0--------------
G|--------------------2--2-0---2-0-
D|---------------------------2-----
A|---------------------------------
E|---------------------------------

    Em         G           C           D y Riff5
El pibe de los astilleros nunca se rendía
Em             G    C             D y Riff6
 (tuvo un palacete por un par de días)
 Em  G       C             D y Riff7
Rapiñaba montado a los containers
    Em       D y Riff8           C
el maldito amor que tanto miedo da...


** Solo de saxo: [G - D - C - D]x3 [Em - D - C] **


Verso 4 

Riff9            Riff10                   Riff11
e|--/12~~-      |------------------      |------12--------
G|--------      |------------------       |--/11----10-----
E|--------      |--3~-0-2p0--------       |------------12~-
G|--------      |-----------2-2~-5-       |----------------
E|--------      |------------------       |----------------
G|--------      |------------------       |----------------

                              Riff9
Fue por una lluvia que realmente moje
                    Riff10
(que pusiera fin a su aventura)
                   Riff11
Un final feliz para pimpollos
allí estaba, al fin, acechándolo


** Intro **


Coro

Riff 12            Riff 13            Riff 14
e|----------      |-----------      |-----10-10/12~-
B|----------      |--/7-7-7~~-      |--12-----------
G|--2p0-----      |-----------      |---------------
D|----------      |-----------      |---------------
A|------2~~-      |-----------      |---------------
E|----------      |-----------      |---------------

                        Riff12
Ciertos reyes no viajan en camello
                      Riff1
Ellos andan al tranco del amor
                     Riff13            Riff14
Esos tipos soplan con el viento al rebaño y su temor


** Intro x2 **


** Intro: Viola 1 sola **


Final

Viola 1
e|------------------------------------------------------------------
B|------------------------------------------------------------------
G|--9-9-7h9p7------------------------9-9-7h9p7----------------------
D|-----------9-9~--5-7-7p5---5-----------------9-9~~--5-7-7p5---5~~-
A|-------------------------7---7-5----------------------------7-----
E|---------------------------------7--------------------------------

e|------------------
B|------------------
G|------------------
D|--5h7-7-5h7p5-----
A|--------------7-7-
E|------------------

Viola 2
e|--7-7-5h7p5---------------------------7-7-5h7p5----------------------
B|------------7-7~~--3-5-5p3---3------------------7-7~~--3-5-5p3---3~~-
G|---------------------------4---4-2-----------------------------4-----
D|-----------------------------------4---------------------------------
A|---------------------------------------------------------------------
E|---------------------------------------------------------------------

Bueno, la verdad no estoy muy seguro de los Riffs porque están medio escondidos,
si tienen alguna corrección no duden en hacérsela. Aguante los Redondos y la Renga !!!
Vamos CONDENADOS que se puede !!!
Suggest correction
Creating personal tab
Creating personal tab
You can edit any tab online and save it as your Personal.

You can edit, replace or remove any tab part or add personal notes – all changes will be seen only by you.

Personal tabs can be accessed anytime from any device, even offline.
Learn more »
Give kudos to tab author, rate the tab!
1 2 3 4 5
comments
print report bad tab
guest
Wanna post a correction for this tab? Suggest correction