Oops, an error
Loading. Please wait.

El Templo De Momo tab

version 2
version 2

Whole song

52 views 3 this week
no commentswrite comment
1 2 3 4 5
3 more votes to show rating
add to favorites
×
Save as Personal and add changes to this tab that will be seen only by you. Learn more ›
×
You can save this tab as Personal to edit and correct it or add notes. All changes will be seen only by you. Learn more »
launch autoscroll
font size
0
reset
how to read this tab
guitar tuner
edit
Autoscroll
slow
fast
+/-
esc
set tempo
stop
Intro:

Guitarra 1
Riff 1
e|-------------|---------------|---------------|---------------|
B|-------------|---------------|---------------|---------------|
G|-------------|---------------|---------------|---------------|
D|-------------|---------------|---------------|---------------|
A|-(7)-----1-0-|-(7)-7-----1-0-|-(7)-7-----1-0?|-(7)-----------|
E|-(5)-3-5-----|-(5)-5-3-5-----|-(5)-5-3-5-----|-(5)-0-3-0-3-0-|

                               Guitarra 2      e|---------|
                               Punteo 1        B|--8/6-5--|
                                               G|---------|
                                               D|---------|
                                               A|---------|
                                               E|---------|
Guitarra 1
Riff 2
e|-------------|---------------|---------------|---------------|
B|-------------|---------------|---------------|---------------|
G|-------------|---------------|---------------|---------------|
D|-------------|---------------|---------------|---------------|
A|-(7)-----4---|-(7)-7-----4---|-(7)-7-----4---|-(7)-----------|
E|-(5)-3-5---3-|-(5)-5-3-5---3-|-(5)-5-3-5---3-|-(5)-0-3-0-3-0-|

                               Guitarra 2      e|---------|
                               Punteo 1        B|--8/6-5--|
                                               G|---------|
                                               D|---------|
                                               A|---------|
                                               E|---------|


A5
Un galpon de luz, es el templo del momo
                                Punteo 1
Pura flor chillona y pura ambriaguez
A5
Santo fumador, de allá de La Plata

Salí del letargo veni a desfilar

Estribillo (como intro):

Además, de tu sonrisa

Además, de tus dolores

Vas a copiar del templo del Momo,

Un amor salvaje y al pulso del trip.

A5
También hay pastel de ponsoña salada
                        Punteo 1
Licor y baladas para embaucar
A5
Aquel rubio que se tragaba cien lucas

Hace lo que puede para vivir


Estribillo (como intro):

Además, de tu sonrisa,

Además, si!.. de como mentir

Vas a copiar desde Momo-Sampler

Viejas medicinas para soñar...

Solo: base en E5

e|--------------------------------------|---------------------------------|
B|--5h7--7-7-7---------(7)--------------|-7-7-7---------(7)-----9-(7)-(7)-|
G|-------6-6-6--5-5-5--(6)--6-7-6-------|-6-6-6--5-5-5--(6)--6--9-(7)-(6)-|
D|--------------------------------7-9---|---------------------------------|
A|------------------------------------7-|---------------------------------|
E|--------------------------------------|---------------------------------|

e|---------------------|------------|--------------------------|
B|---7-7---(7)-7---(7)-|-----(10)---|-7--(7)-------------------|
G|-6-----6-------6-----|-6/9------9-|-6------5/6---------------|
D|---------------------|------------|------------7/9-----7-----|
A|---------------------|------------|----------------7/9---(9)-|
E|---------------------|------------|--------------------------|


Estribillo (como intro):

Además, de tu sonrisa

Además, de tus dolores

Vas a copiar del templo del Momo,

Un amor salvaje y al pulso del trip.


A5
Vienen tambaleando, gallos sofocados

Y la 'quetejedi' prepara el festín.

Le dan a la F100 a toda mostaza

(A veces funciona, otras veces no)

         GUITARRA 2:
e|-------------------------|   |---------------------------|
B|-------------------------|   |---------------------------|
G|-7-7h6-----7-6-----------|X3 |-7-7h6-----7-6-------------|
D|-------7-5-----7-5---7-5-|   |-------7-5-----7-5---5-----|
A|-------------------7-----|   |-------------------7---7---|
E|-------------------------|   |---------------------------|

Estribillo (como intro)

Además, de tu sonrisa,

Además, si!... de como mentir

Vas a copiar desde Momo-Sampler

Viejas medicinas para soñar...

Final:

Guitarra 1
Riff 2
e|-------------|---------------|---------------|---------------|
B|-------------|---------------|---------------|---------------|
G|-------------|---------------|---------------|---------------| x2
D|-------------|---------------|---------------|---------------|
A|-(7)-----4---|-(7)-7-----4---|-(7)-7-----4---|-(7)-----------|
E|-(5)-3-5---3-|-(5)-5-3-5---3-|-(5)-5-3-5---3-|-(5)-0-3-0-3-0-|

                               Guitarra 2      e|---------|
                               Punteo 1        B|--8/6-5--|
                                               G|---------| x2
                                               D|---------|
                                               A|---------|
                                               E|---------|

Espero q sirva....
Aguante los redondos!!

            
            
Suggest correction
Creating personal tab
Creating personal tab
You can edit any tab online and save it as your Personal.

You can edit, replace or remove any tab part or add personal notes – all changes will be seen only by you.

Personal tabs can be accessed anytime from any device, even offline.
Learn more »
Give kudos to tab author, rate the tab!
1 2 3 4 5
comments
print report bad tab
guest
Wanna post a correction for this tab? Suggest correction