Oops, an error
Loading. Please wait.

El Templo De Momo tab

version 3
version 3

Whole song

16 views 1 this week
no commentswrite comment
1 2 3 4 5
3 more votes to show rating
add to favorites
×
Save as Personal and add changes to this tab that will be seen only by you. Learn more ›
×
You can save this tab as Personal to edit and correct it or add notes. All changes will be seen only by you. Learn more »
launch autoscroll
font size
0
reset
how to read this tab
guitar tuner
edit
Autoscroll
slow
fast
+/-
esc
set tempo
stop
Intro:

Riff 1
e|----------------|----------------|----------------|----------------|
b|----------------|----------------|----------------|----------------|
g|----------------|----------------|----------------|----------------|
d|--7-----------5-|--7-----------5-|--7-----------5-|--7-------------|
a|--7-------------|--7-------------|--7-------------|--7-------------|
E|--5---3-5-6-----|--5---3-5-6-----|--5---3-5-6-----|--5---0-3-0-3-5-|

                                    Aca la otra     |----------------|
                                    guitarra        |------8/6-5-----|
                                    hace esto       |----------------|
                                                    |----------------|
                                                    |----------------|
                                                    |----------------|


Riff 2
e|----------------|----------------|----------------|----------------|
b|----------------|----------------|----------------|----------------|
g|----------------|----------------|----------------|----------------|
d|--7-------------|--7-------------|--7-------------|--7-------------|
a|--7-------4-----|--7-------4-----|--7-------4-----|--7-------------|
E|--5---3-5---3---|--5---3-5---3---|--5---3-5---3---|--5---0-3-0-3-5-|

                                                  (Segunda guitarra igual
                                                     que en el riff 1)


El verso es todo en A5 pero escuchen la cancion para
encajarle el ritmo:

A5
Un galpón de luz es el templo de momo
Pura flor chillona y pura embraguiez.
Santo fumador de allá...de la plata
Salí del letargo, vení a desfilar


Riff 1
Además de tu sonrisa
Además de tu dolores

Riff 2
Vas a copiar del templo de momo
Un amor salvaje y el pulso del trip.


A5
También hay pastel de ponsoña salada
Licor y baladas para embaucar...
Aquel rubio q se tragaba cien lucas
Hace lo que puede para vivir.


Riff 1
Además de tu sonrisa
Además, si!...de como mentir

Riff 2
Vas a copiar desde momo-sampler
Viejas medicinas para soñar...


(solo)


Riff 1
Además de tu sonrisa
Además de tu doloresç

Riff 2
Vas a copiar del templo de momo
Un amor salvaje y el pulso del trip.


A5
Vienen tambalenado, gallos sofocados
Y la "quetejedi" prepara el festín.
Le dan a la f100 a toda mostaza
(a veces funciona, otras veces no).


Riff 1
Además de tu sonrisa
Además, si!...de como mentir

Riff2
Vas a copiar desde momo-sampler
Viejas medicinas para soñar...


Riff 2
Ademaas..
Ademaas..


Termina haciendo Riff 2 de nuevo

Y la otra guitarra hace algo mas o menos asi

e|----------------|----------------|----------------|
b|----------------|----------------|------8/6-5-----|
g|----7-5h7p5-----|----7-5h7p5-----|----------------|
d|--5---------7-5-|--5---------7-7-|----------------|
a|----------------|----------------|----------------|
E|----------------|----------------|----------------|


Bueno espero que se entienda ya que es la primera vez
que mando una cancion :D
Saludos

            
            
Suggest correction
Creating personal tab
Creating personal tab
You can edit any tab online and save it as your Personal.

You can edit, replace or remove any tab part or add personal notes – all changes will be seen only by you.

Personal tabs can be accessed anytime from any device, even offline.
Learn more »
Give kudos to tab author, rate the tab!
1 2 3 4 5
comments
print report bad tab
guest
Wanna post a correction for this tab? Suggest correction