Oops, an error
Loading. Please wait.

Esto Es To-To Todo Amigos!!! tab

version 2
version 2

Whole song

25 views 1 this week
no commentswrite comment
1 2 3 4 5
3 more votes to show rating
add to favorites
×
Save as Personal and add changes to this tab that will be seen only by you. Learn more ›
×
You can save this tab as Personal to edit and correct it or add notes. All changes will be seen only by you. Learn more »
launch autoscroll
font size
0
reset
how to read this tab
guitar tuner
edit
Autoscroll
slow
fast
+/-
esc
set tempo
stop
hola a to-to-todos...bueno basicamente aca les traigo el tema bien armado
(donde va cada parte) y con unos arreglos que le hice
a la trascripcion de lautaro.

PD: es la version en vivo de river


intro :

e|----|----|-----------------------|----|------------------------|----|
b|----|----|-----------------------|----|------------------------|----|
g|-S~-|-x4-|-----------------------|-x2-|--3p4-4444-4444-4444-44-|-x2-|
D|----|----|-2p3-3333-3333-3333-33-|----|--2p3-3333-3333-3333-33-|----|
A|----|----|-----------------------|----|------------------------|----|
E|----|----|-----------------------|----|------------------------|----|

riff 1:

e|------------------------|----|
b|----12b~------12----9b~-|----|  (4 son continuacion de la intro
g|----12b~---12----12-9b~-|-x8-|
D|------------------------|----|    y 4 en el 1er verso)
A|-12---------------------|----|
E|-10-----10--------------|----|


verso 1:

Con este bonus-track
de mierda de guerra,
LA armada Buscapina
ahora va a pirar,
Acabarán sus días de cohiba
en muerte sexy,
sexy de más.

puente 1:

e|-----------------------|----|
b|-----------------------|----|
g|-----------------------|-x2-|
D|-99-9~--99-99-99-99-99-|----|
A|-99-9~--99-99-99-99-99-|----|
E|-77-7~--77-77-77-77-77-|----|

riff 1 x 4 :

e|------------------------|
b|----12b~------12----9b~-|
g|----12b~---12----12-9b~-|
D|------------------------|
A|-12---------------------|
E|-10-----10--------------|

puente 2:

e|-----------------------||-----------------------|----|
b|-----------------------||-----------------------|----|
g|-----------------------||-----------------------|-x2-|
D|-99-9~--99-99-99-99-99-||-33-3~--33-33-33-33-33-|----|
A|-99-9~--99-99-99-99-99-||-33-3~--33-33-33-33-33-|----|
E|-77-7~--77-77-77-77-77-||-11-1~--11-11-11-11-11-|----|

(es to-to-todo amigos!)

riff 1 x 4 :

e|------------------------|
b|----12b~------12----9b~-|
g|----12b~---12----12-9b~-|
D|------------------------|
A|-12---------------------|
E|-10-----10--------------|

verso 2 :

e|----|
b|----|
g|-S~-| x2
D|----|
A|----|
E|----|

Tu diablo peor
(el diablo que reza)
va a pesar su cola
en Cyberbabel

riff 2

Danza macabra en el Gheto de los Pibes
sexy, sexy demás.


riff 2 : (igual que la intro)

e|-----------------------|----|------------------------|----|
b|-----------------------|----|------------------------|----|
g|-----------------------|-x2-|--3p4-4444-4444-4444-44-|-x2-|
D|-2p3-3333-3333-3333-33-|----|--2p3-3333-3333-3333-33-|----|
A|-----------------------|----|------------------------|----|
E|-----------------------|----|------------------------|----|


riff 1 x 4 :

e|------------------------|
b|----12b~------12----9b~-|
g|----12b~---12----12-9b~-|
D|------------------------|
A|-12---------------------|
E|-10-----10--------------|

puente 1 :

e|-----------------------|----|
b|-----------------------|----|
g|-----------------------|-x2-|
D|-99-9~--99-99-99-99-99-|----|
A|-99-9~--99-99-99-99-99-|----|
E|-77-7~--77-77-77-77-77-|----|

la sole se fué,
de lo linda que era!.

riff 1 x 4 :

e|------------------------|
b|----12b~------12----9b~-|
g|----12b~---12----12-9b~-|
D|------------------------|
A|-12---------------------|
E|-10-----10--------------|

verso 3 :

Cabeza de hurco!
cabeza se flan!!
Pajarito loco de cyberbabel,
te perderas en abrasos de molusco
sexy, sexy demás.

riff 1 x 4 :


e|------------------------|
b|----12b~------12----9b~-|
g|----12b~---12----12-9b~-|
D|------------------------|
A|-12---------------------|
E|-10-----10--------------|

puente 1 :

e|-----------------------|----|
b|-----------------------|----|
g|-----------------------|-x2-|
D|-99-9~--99-99-99-99-99-|----|
A|-99-9~--99-99-99-99-99-|----|
E|-77-7~--77-77-77-77-77-|----|

verso 4 :

Por donde el mister va,
chifla el falso conde,
canciones heroicas para Omar Chabán.
Donarán sus huevos a la ciencia
Sexy, sexy demás

riff 1 x 4 :

e|------------------------|
b|----12b~------12----9b~-|
g|----12b~---12----12-9b~-|
D|------------------------|
A|-12---------------------|
E|-10-----10--------------|

silencio x 4

redonditos! rara bestia! rara bestia! redondito!

riff 2 :

e|-----------------------|----|------------------------|----|
b|-----------------------|----|------------------------|----|
g|-----------------------|-x2-|--3p4-4444-4444-4444-44-|-x2-|
D|-2p3-3333-3333-3333-33-|----|--2p3-3333-3333-3333-33-|----|
A|-----------------------|----|------------------------|----|
E|-----------------------|----|------------------------|----|

riff 1 x 4 :

e|------------------------|
b|----12b~------12----9b~-|
g|----12b~---12----12-9b~-|
D|------------------------|
A|-12---------------------|
E|-10-----10--------------|

no te van a dar más!
no te van a dar más!

fin:

e|-----------------------|----|----10~~~-|
b|-----------------------|----|----10~~~-|
g|-----------------------|-x2-|----10~~~-|
D|-99-9~--99-99-99-99-99-|----|-3--------|
A|-99-9~--99-99-99-99-99-|----|-3--------|
E|-77-7~--77-77-77-77-77-|----|-1--------|

espero que les sirva... el riff 1 lo pueden cambiar

y en vez de hacer b|-9b~-|
                  g|-9b~-|


simplemente hacer g|-9~~-|


o si les gusta b|-8b~-|
               g|-9b~-|

aguante los redondos! =)

            
            
Suggest correction
Creating personal tab
Creating personal tab
You can edit any tab online and save it as your Personal.

You can edit, replace or remove any tab part or add personal notes – all changes will be seen only by you.

Personal tabs can be accessed anytime from any device, even offline.
Learn more »
Give kudos to tab author, rate the tab!
1 2 3 4 5
comments
print report bad tab
guest
Wanna post a correction for this tab? Suggest correction