Oops, an error
Loading. Please wait.

Fuegos De Octubre tab

version 3
version 3

Whole song

69 views 1 this week
no commentswrite comment
1 2 3 4 5
3 more votes to show rating
add to favorites
×
Save as Personal and add changes to this tab that will be seen only by you. Learn more ›
×
You can save this tab as Personal to edit and correct it or add notes. All changes will be seen only by you. Learn more »
launch autoscroll
font size
0
reset
how to read this tab
guitar tuner
edit
Autoscroll
slow
fast
+/-
esc
set tempo
stop
Intro: (empieza como en fade out pero al reves nose como se yama)

e|-------|
b|-------|
g|-----4-|            cuando la guitarra hace esto vamos a marcarlo
D|-------|            de esta forma : ()
A|-0h2---|            ya que se repite mucho y no tengo idea de cómo
E|-------|            nombrarlo


   0:22                                                         _
                                                                 |
e|-------------------------|-------|-------------------|-------| |
b|-/10-10~-12-12--10--12~~-|-()x-2-|-------------------|-()x-2-| | x2
g|-------------------------|-------|-/9--11-11--9--11--|-------| |
D|-------------------------|-------|-------------------|-------| |
A|-------------------------|-------|-------------------|-------| |riff
E|-------------------------|-------|-------------------|-------| |1º
                                                                _|


e|-------------|--------|------------|-------|
b|-8------6-7~-|-()-x-3-|-8-------7~-|-()x-2-|  digamos que este es
g|---7~6~------|--------|---7~6~-----|-------|  el riff 2º
D|-------------|--------|-------9----|-------|
A|-------------|--------|------------|-------|
E|-------------|--------|------------|-------|

e|----------7~~~~~~~~-|---------------------|
b|-1/3p0--------------|-1/3p0-----7~~~~~~~~-|   y este el
g|------2/4-----------|------2/4------------|   3º (aunque esto sea
D|--------------------|---------------------|   irrelevante ya que esto
A|--------------------|---------------------|   no vuelve a repetirse)
E|--------------------|---------------------|


e|-------------|--------|------------|-------| este es como un riff 2º
b|-8------6-7~-|-()-x-3-|-8-------7~-|-()x-3-| pero "()" la
g|---7~6~------|--------|---7~6~-----|-------| 2da vez se repite
D|-------------|--------|-------9----|-------| 3 veces a diferencia
A|-------------|--------|------------|-------| de la vez anterior
E|-------------|--------|------------|-------| este se llamara 2º**

Verso: riff 1º (canta en "()")

De regreso a oktubre

este oktubre

sin un estandarte

de mi parte

____________________

riff 2º**

te prefiero igual

internacional

____________________

Pre solo:

e|-------------------|
b|----0-2~-3-5~-3-2~-|
g|-3~----------------|  x 2
D|-------------------|
A|-------------------|
E|-------------------|

Solo

e|------------------------------------------12~12-12~12-12---------------|
b|-10~12-12-10-12~~12-12~~12-12-12~~12-12-12--------------10-10-12-10-12~|
g|-----------------------------------------------------------------------|
D|-----------------------------------------------------------------------|
A|-----------------------------------------------------------------------|
E|-----------------------------------------------------------------------|


e|----------------------------------12~~-12-12~~-12-12-----------------|
b|-10h12-12-10-12-10-12-10-12-10-12--------------------10-10-12-10-12~-|
g|---------------------------------------------------------------------|
D|---------------------------------------------------------------------|
A|---------------------------------------------------------------------|
E|---------------------------------------------------------------------|

e|---14----14------14----14------14----14---------12~~-|
b|-12--1212--121212~-1212--121212~-1212--1212-1010-----|
g|-----------------------------------------------------| x2
D|-----------------------------------------------------|
A|-----------------------------------------------------|
E|-----------------------------------------------------|

e|-------------------|---------------------|-------------------|
b|-------------------|---------------------|-------------------|
g|-------------------|---------------------|-------------------|
D|-------------------|------------------2~-|-------------------|
A|---------0-2~-4-5~-|---------0-2~-4-5----|---------0-2~-4-5~-|
E|-0~-2-3~-----------|-0~-2-3~-------------|-0~-2-3~-----------|

e|------------------|
b|-------------7-8~-|
g|------6~~7-9~-----|
D|-8~~9-------------|
A|------------------|
E|------------------|


Verso: riff 1º (canta en "()")

De regreso a oktubre

este oktubre

sin un estandarte

de mi parte

____________________

riff 2º**

te prefiero igual

internacional

____________________

Fin:

e|-------------|--------|
b|-8------6-7~-|-()-x-3-|
g|---7~6~------|--------|
D|-------------|--------|
A|-------------|--------|
E|-------------|--------|

e|--------------------------------|
b|-8~-----------------------------|
g|---7~6~-------------------------|
D|-------8~9~---------------------|
A|-----------9~7~-----------2~~~~-|
E|---------------10~9~7~6~2~------|


bueno desde ya muchas gracias por haber utilizado mi transcripcion
para disfrutar de este tema cualquier correccion mi mail es
  cualkier consulta me pueden encontrar
vuelvo a decirles muchas gracias y mucha suerte

            
            
Suggest correction
Creating personal tab
Creating personal tab
You can edit any tab online and save it as your Personal.

You can edit, replace or remove any tab part or add personal notes – all changes will be seen only by you.

Personal tabs can be accessed anytime from any device, even offline.
Learn more »
Give kudos to tab author, rate the tab!
1 2 3 4 5
comments
print report bad tab
guest
Wanna post a correction for this tab? Suggest correction