Oops, an error
Loading. Please wait.

Lavi-Rap tab

version 2
version 2

Whole song

17 views 1 this week
no commentswrite comment
1 2 3 4 5
3 more votes to show rating
add to favorites
×
Save as Personal and add changes to this tab that will be seen only by you. Learn more ›
×
You can save this tab as Personal to edit and correct it or add notes. All changes will be seen only by you. Learn more »
launch autoscroll
font size
0
reset
how to read this tab
guitar tuner
edit
Autoscroll
slow
fast
+/-
esc
set tempo
stop
Lavi-rap

Intro: Riff 1 + G5-A5(4 Veces) F5-G5 (4 veces) G5-A5(4 veces) + Riff2

(Con Riff 3)
C5             D5            C5
  El morta, huesito y mister    Ed
D5                    C5
van a saltar otra vez sin red
      D5                   F5*
se enrollan, se baten, se agitan y mojan
   C5   D5  F5* D5
en Lavi-Rap  
C5   D5
Lavi Rap

C5        D5          C5
  Al comprar el 'pajarito'
D5             C5
debieron preguntar, tal vez,
 D5               F5*   D5
cuanto costaba la linda jaula
     C5   D5 F5* D5
del Lavi-Rap
C5   D5  F5* D5
Lavi Rap

Bb   C5  D5 C5
Lavi Rap
Bb    C5   Riff 2
Lavi Rap


(Igual)
Unos mónicos asteroides
tragan y esperan para enjuagar
al todopoderoso dios
del Lavi-Rap
Lavi Rap


Solo saben llorar por minas y por guita
(no más bohemia todo es chusmear)
y tener, todo clarito 
en 
Lavi-Rap
Lavi Rap

Lavi Rap
Lavi Rap

Solo de Saxo ---------|-------------|-
---------|-------------|-
---------|-------------|-
---------|-0-0---------|-
-0-0-0---|-----0-0-0---|-
-------0-|-----------0-|-

Riff 2:

---------|---------|---------|----------|----------
---------|---------|---------|--------7-|----------
---------|---------|---------|--------7-|----------
-----5---|-----5---|-----5---|----------|----------
-5h7---7-|-5h7---7-|-5h7---7-|-5h7-5----|----------
---------|---------|---------|----------|----------

Riff 3:

-------------------|--------------------|-
-------------------|--------------------|-
-7-7-7-7-7-7-7/9-9-|--7-7-7-7-7-7-7/9-9-|-
-7-7-7-7-7-7-7/9-7-|--7-7-7-7-7-7-7/9-7-|-
-5-5-5-5-5-5-5/7-7-|--5-5-5-5-5-5-5/7-7-|-
-------------------|--------------------|-

 G5  A5  F5  D5  C5  F5*  Bb
-x-|-x-|-x-|-x-|-x-|-x--|-x-|-
-x-|-x-|-x-|-x-|-x-|-x--|-3-|-
-x-|-2-|-x-|-7-|-5-|-x--|-3-|-
-5-|-2-|-3-|-7-|-5-|-10-|-3-|-
-5-|-0-|-3-|-5-|-3-|-8--|-1-|-
-3-|-x-|-1-|-x-|-x-|-x--|-x-|-
Suggest correction
Creating personal tab
Creating personal tab
You can edit any tab online and save it as your Personal.

You can edit, replace or remove any tab part or add personal notes – all changes will be seen only by you.

Personal tabs can be accessed anytime from any device, even offline.
Learn more »
Give kudos to tab author, rate the tab!
1 2 3 4 5
comments
print report bad tab
guest
Wanna post a correction for this tab? Suggest correction