Oops, an error
Loading. Please wait.
61 views 1 this week
no commentswrite comment
1 2 3 4 5
3 more votes to show rating
add to favorites
×
Save as Personal and add changes to this tab that will be seen only by you. Learn more ›
×
You can save this tab as Personal to edit and correct it or add notes. All changes will be seen only by you. Learn more »
launch autoscroll
font size
0
reset
how to read this tab
guitar tuner
edit
Autoscroll
slow
fast
+/-
esc
set tempo
stop
LAVI RAP.
Intro:

BAJO:
G|--------------|--|--------------------|-------------|----------------|--|------------------|--|
D|--------------|X2|--------------------|-------------|----------------|x2|------------------|X2|
A|-0-0--3-3--0-0|--|-----0-0-----3-3-0-0|-0-0-3-3-0-0-|-------3-3------|--|------------------|--|
E|--------------|--|--------------------|-------------|(3)-(5)---(3)(5)|--|(1)-(3)-1-0-(1)(3)|--|
 
Guitarra:                   Armonicos                   SOL  LA   SOl LA    FA SOL    FA SOL
E|--------------|--|--------------------|-------------|----------------|--|------------------|--|
B|--------------|--|--------------------|-------------|----------------|--|------------------|--|
G|--------------|--|----a---------------|-------------|----------------|X2|------------------|X2|
D|--------------|--|-a-------a-------|------------/|(5)-(7)---(5)(7)|--|------------------|--|
A|--------------|--|------a-------|------------/|(5)-(7)---(5)(7)|--|(3)-(5)-----(3)(5)|--|
E|--------------|--|-----------------|-------------|(3)-(5)---(3)(5)|--|(1)/(3)-1-0-(1)(3)|--|


sigue asi...
guitarra:
      SOLm LA                        RIFF A                    1era vuelta   2da vuelta
E|-------------------|--|-----------------------------------------|-----|--|-------|
B|-------------------|--|-----------------------------------------|-----|--|-------|
G|-------------------|X2|-----------------------------------------|-77~~|--|-------|
D|(5)-(7)------(5)(7)|--|-------7---------7---------7-------------|-----|X2|-------|
A|(5)-(7)--5-5-(5)(7)|--|-x-5-7---5h7-5-7---5h7-5-7----5h7-5-7-(5)|-----|--|--(5)--|
E|(3)-(5)--3-3-(3)(5)|--|-x---------------------------------------|-----|--|-------|

BAJO:
   SOL LA   SOL LA
G|-------------------|--|-----------------------------------------|-----|--|-------|
D|-------------------|X2|-------7---------7---------7-------------|-----|x2|-------|
A|-------------------|--|---5-7---5h7-5-7---5h7-5-7----5h7-5-7-(5)|-----|--|--(5)--|
E|(3)-(5)--3-3-(3)(5)|--|-----------------------------------------|-----|--|-------|


VERSO 1:

Guitarra 1:  
         RE*            MI*        SOL*    MI*                
E|--2-2-2-2-2-2-2---2/-4--(4)-|--|-7--7---4---||
B|--3-3-3-3-3-3-3---3/-5--(5)-|--|-8--8---5---||
G|--2-2-2-2-2-2-2---2/-4--(4)-|X3|-7--7---4---||
D|--0-0-0-0-0-0-0---0/----(0)-|--|--------0---||
A|----------------------------|--|------------||
E|----------------------------|--|------------||

GUITARRA 2:
                       MI5       SOL5    MI5                
E|----------------------------|--|------------||
B|----------------------------|--|------------||
G|------------------7/-9--(9)-|X3|--------9---||
D|------------------7/-9--(9)-|--|-12-12--9---||
A|------------------5/-7--(7)-|--|-10-10--7---||
E|----------------------------|--|------------||

BAJO:
G|----------------------------|--|------------||
D|----------------------------|--|------------||
A|----------------------------|--|------------||
E|----------------------------|--|------------||

RE*            MI*            RE*
  El morta, huesito y mister    Ed
MI*                   RE*
van a saltar otra vez sin red
      MI*                 SOL*            MI*
se enrollan, se baten, se agitan y mojan.


ESTRIBILLO 1


   RE*  MI*  SOL*RE*
en Lavi-Rap  

RE*  MI*    
Lavi Rap


GUITARRA 1:
    RE*   MI*     SOL*   RE*      RE*   MI*                              
E|-(2)---(4)------7-7----(4)---|-(2)---(4)--||
B|-(3)---(5)------8-8----(5)---|-(3)---(5)--||
G|-(2)---(4)------7-7----(4)---|-(2)---(4)--||
D|-(0)-------------------------|-(0)--------||
A|-----------------------------|------------||
E|-----------------------------|------------||

BAJO:
G|-----------------------------|------------||
D|-----------------------------|------------||
A|-(5)---(7)-------------------|-(5)---(7)--||
E|-----------------------------|------------||

GUITARRA 2:

   [ RE5   MI5     SOL5   RE5      RE5   MI5 ]


VERSO 2: (Igual)

Guitarra 1:  
         RE*            MI*        SOL*    MI*                
E|--2-2-2-2-2-2-2---2/-4--(4)-|--|-7--7---4---||
B|--3-3-3-3-3-3-3---3/-5--(5)-|--|-8--8---5---||
G|--2-2-2-2-2-2-2---2/-4--(4)-|X3|-7--7---4---||
D|--0-0-0-0-0-0-0---0/----(0)-|--|--------0---||
A|----------------------------|--|------------||
E|----------------------------|--|------------||


RE*          MI*        RE*
  Al comprar el 'pajarito'
MI*            RE*
debieron preguntar, tal vez,
 MI*             SOL*    MI
cuanto costaba la linda jaula.


     
ESTRIBILLO 2:

GUITARRA 1:
    RE*   MI*   SOL*   MI*      RE*  MI* MI#*   RE*   DO*  RE   MI#  RE     DO*  RE             
E|-(2)---(4)----7-7----(4)---|-(2)--(4)---5-5--(2)--|-(0)--(2)--5-5--(2)-|-(0)--(2)---|
B|-(3)---(5)----8-8----(5)---|-(3)--(5)---6-6--(3)--|-(1)--(3)--6-6--(3)-|-(1)--(3)---|
G|-(2)---(4)----7-7----(4)---|-(2)--(4)---5-5--(2)--|-(0)--(2)--5-5--(2)-|-(0)--(2)---|
D|-(0)-----------------------|-(0)--------0-0--(0)--|------(0)--0-0--(0)-|------(0)---|
A|---------------------------|----------------------|--------------------|------------|
E|---------------------------|----------------------|--------------------|------------|

BAJO:
G|---------------------------|----------------------|--------------------|------------|
D|--------------5-5----------|----------------------|-----------3-3------|------------|
A|-(5)---(7)-----------(7)---|-(5)---(7)--8-8--(5)--|-(3)--(5)-------(5)-|-(3)--(5)---|
E|---------------------------|----------------------|--------------------|------------|

GUITARRA 2:

   [RE5 -  MI5 - SOL5 - MI5 -    RE5- MI5-MI#5  - RE5- DO5 -RE5 - MI#5 -RE5 - DO5 -RE5 ]


     RE5  MI5 SOL5 MI5
del Lavi-Rap

RE5 MI5   MI#5 RE5
Lavi Rap

DO5  RE5    MI#5 RE5
Lavi Rap

DO5   RE5   Riff A (Intermedio)
Lavi Rap


INTERMEDIO

RIFF A ]X2

guitarra:
                             RIFF A                   
E||-----------------------------------------------|--|
B||-----------------------------------------------|--|
G||-------------------------------------------77~~|--|
D||-------7---------7---------7-------------------|X2|
A||-x-5-7---5h7-5-7---5h7-5-7----5h7-5-7-(5)------|--|
E||-x---------------------------------------------|--|

BAJO:
G||-----------------------------------------------|--|
D||-------7---------7---------7-------------------|X2|
A||-x-5-7---5h7-5-7---5h7-5-7----5h7-5-7-(5)------|--|
E||-----------------------------------------------|--|


VERSO 3 (igual 1)

Con anabolicos asteroides
tragan y esperan para
enjuagar
al todopoderoso dios


ESTRIBILLO 3 (igual 1)
 
   RE*  MI*  SOL*RE*
en Lavi-Rap  

RE*  MI*    
Lavi Rap


VERSO 4 (igual)

Solo saben llorar 
por minas y por guita
(no más bohemia todo
es chusmear)
y tener, todo clarito 

ESTRIBILLO 4 (igual al 2) 


     RE5  MI5 SOL5 MI5
del Lavi-Rap

RE5 MI5   MI#5 RE5
Lavi Rap

DO5  RE5    MI#5 RE5
Lavi Rap

DO5   RE5   
Lavi Rap


SOLO DE SAXO.

BAJO:   SOL - LA               FA - SOL              SOL -  LA
G|---------------------|--|---------------------|--|----------------------|--|
D|---------------------|x2|---------------------|X1|----------------------|--|
A|----------3-3--------|--|---------------------|--|----------------------|X1|
E|-(3)-(5)------(3)-(5)|--|(1)-(3)--1-0--(1)(3)-|--|-(3)-(5)------(3)-(5)-|--|
 
Guitarra:       
   SOL  LA      SOl LA       FA SOL     FA SOL       SOL LA       SOL LA 
E|---------------------|--|---------------------|--|----------------------|--|
B|---------------------|--|---------------------|--|----------------------|--|
G|---------------------|X2|---------------------|X1|----------------------|X1|
D|-(5)-(7)------(5)-(7)|--|(3)-(5)-------(3)(5)-|--|-(5)-(7)------(5)-(7)-|--|
A|-(5)-(7)------(5)-(7)|--|(3)-(5)-------(3)(5)-|--|-(5)-(7)------(5)-(7)-|--|
E|-(3)-(5)------(3)-(5)|--|(1)/(3)--1-0--(1)(3)-|--|-(3)-(5)------(3)-(5)-|--|


INTERMEDIO

RIFF A ]X2

guitarra:
                             RIFF A                   
E||-----------------------------------------------|--|
B||-----------------------------------------------|--|
G||-------------------------------------------77~~|--|
D||-------7---------7---------7-------------------|X2|
A||-x-5-7---5h7-5-7---5h7-5-7----5h7-5-7-(5)------|--|
E||-x---------------------------------------------|--|

BAJO:
G||-----------------------------------------------|--|
D||-------7---------7---------7-------------------|X2|
A||-x-5-7---5h7-5-7---5h7-5-7----5h7-5-7-(5)------|--|
E||-----------------------------------------------|--|


VERSO 5 (igual 1)

Si el pajarito da la buena
van al Tortoni o al castelar
y suman un buen 
baño turco 
    


ESTRIBILLO 5 (igual 1)
 
   RE*  MI*  SOL*RE*
en Lavi-Rap  

RE*  MI*    
Lavi Rap


VERSO 6 (igual)

El ultimo show no murió 
casi nadie, 
se fue vacio el furgon de 
los fiambres
cubrieron la mierda de 
azúcar negra
 


ESTRIBILLO 6 (igual al 2) 


     RE5  MI5 SOL5 MI5
del Lavi-Rap

RE5 MI5   MI#5 RE5
Lavi Rap

DO5  RE5    MI#5 RE5
Lavi Rap

DO5   RE5   
Lavi Rap


 FINAL. (con Riff A)

guitarra:
                   RIFF A                   
E||-----------------------------------------------|--|
B||-----------------------------------------------|--|
G||-------------------------------------------77~~|--|
D||-------7---------7---------7-------------------|X3|
A||-x-5-7---5h7-5-7---5h7-5-7----5h7-5-7-(5)------|--|
E||-x---------------------------------------------|--|

BAJO:
G||-----------------------------------------------|--|
D||-------7---------7---------7-------------------|X3|
A||-x-5-7---5h7-5-7---5h7-5-7----5h7-5-7-(5)------|--|
E||-----------------------------------------------|--|


y final asi...

GUITARRA :

                     RIFF A                  
E||-----------------------------------------------|
B||-----------------------------------------------|
G||---------------------------------------9--%----|
D||-------7---------7---------7-----------9-------|
A||-x-5-7---5h7-5-7---5h7-5-7----5h7-5-7--7-------|
E||-x---------------------------------------------|

BAJO:
G||-----------------------------------------------|
D||-------7---------7---------7--------------%----|
A||-x-5-7---5h7-5-7---5h7-5-7----5h7-5-7--7-------|
E||-x---------------------------------------------|


fin.

            
            
Suggest correction
Creating personal tab
Creating personal tab
You can edit any tab online and save it as your Personal.

You can edit, replace or remove any tab part or add personal notes – all changes will be seen only by you.

Personal tabs can be accessed anytime from any device, even offline.
Learn more »
Give kudos to tab author, rate the tab!
1 2 3 4 5
comments
print report bad tab
guest
Wanna post a correction for this tab? Suggest correction