Oops, an error
Loading. Please wait.

Masacre En El Puticlub tab

version 3
version 3

Whole song

Interactive

97 views 1 this week
no commentswrite comment
1 2 3 4 5
3 more votes to show rating
add to favorites
×
Save as Personal and add changes to this tab that will be seen only by you. Learn more ›
×
You can save this tab as Personal to edit and correct it or add notes. All changes will be seen only by you. Learn more »
launch autoscroll
font size
0
reset
how to read this tab
guitar tuner
edit
Autoscroll
slow
fast
+/-
esc
set tempo
stop
patricio rey y sus redonditos de ricota
masacre en el puticlub

intro:

1--6-5-4--
2--5-4-3--
3--6-5-4--
4--4-3-2--
5---------
6--------


1---------------------------------------------------------------
2---------------------------------------------------------------
3----3-----------3-----------3----------------------------------
4-------2--4---------0-2--------2--4----------------------------
5--------------------------------------4-4-4-4------------------
6--2----------2-----------2-------------------------------------


1---------------------------------------2-------------------
2---------------------------------------2-------------------
3--3----------3-----------3-------------3-------------------
4----2--4--------0--2---------2--4------4-------------------
5---------------------------------------4-------------------
6-2--------2-----------2----------------2-------------------


FA#7                         FA7
Por una pipa del 9 arrancó
FA#7                         FA7
la gran masacre del puticlub
FA#7                             FA7
con "pastilla" en tren gladiador
FA#7                              FA7
puso un huevo y la cosa expolotó
MI                         RE#
Rock fuerte en el Puticlub
MI
cambió la suerte del Puticlub


6-----------------------------------------------------------
5-----------------------------------------------------------
4-----------------------------------------------------------
3-----------4----2-------2----4-------------6---4------4---6
2----1--4------------4----------------3--6----------6-------
1--2-------------------------------4------------------------
(se vuelve a repetir)


MI                         RE#
Rock fuerte en el Puticlub
MI
cambió la suerte del Puticlub

aca repite toda la intro otra vez

Buena faena de tajo y talón
ruedan los dientes del negro Cañón.
Su mala leche no siente dolor
y arroja entrañas por todo el salón

Los impacientes del Puticlub
perdían el tiempo y la salud
el Gas Coreano de pronto arribó
llegó del norte y todo acabó

Rock fuerte en el Puticlub
je je, que fuerte lo del Puticlub.

termina con la intro


bueno eesas son todas las partes
 del tema solo tienen q escucharlas
 bien en las partes q van
¡q mas quieren,
SI quieren voy A LA casa y se lo enseño a tocar tmb!!!
CHANGA
Suggest correction
Creating personal tab
Creating personal tab
You can edit any tab online and save it as your Personal.

You can edit, replace or remove any tab part or add personal notes – all changes will be seen only by you.

Personal tabs can be accessed anytime from any device, even offline.
Learn more »
Give kudos to tab author, rate the tab!
1 2 3 4 5
comments
print report bad tab
guest
Wanna post a correction for this tab? Suggest correction