Oops, an error
Loading. Please wait.

Mi Genio Amor tab

version 1
version 1

Whole song

107 views 1 this week
no commentswrite comment
1 2 3 4 5
3 more votes to show rating
add to favorites
×
Save as Personal and add changes to this tab that will be seen only by you. Learn more ›
×
You can save this tab as Personal to edit and correct it or add notes. All changes will be seen only by you. Learn more »
launch autoscroll
font size
0
reset
how to read this tab
guitar tuner
edit
Autoscroll
slow
fast
+/-
esc
set tempo
stop
INTRO:
GUITARRA:
   DO5                SI5              LA5
e|------------------------------------------------------|--|------------|
B|------------------------------------------------------|--|-/8--8------|
G|------------------------------------------------------|%-|-------9-7--| y despues--
D|1010101010101010--9-9-9-9-9-9-9-9-7-7-7-7-7-7-7-7---7-|--|-----------9|
A|1010101010101010-1010101010101010-7-7-7-7-7-7-7-7---7-|--|------------|
E|-8-8-8-8-8-8-8-8--7-7-7-7-7-7-7-7-5-5-5-5-5-5-5-5---5-|--|------------|
   
 RIFF A     
e|-----------------------7--(7)--|--|
B|--8-5----8-5----8-5----8--(7)-7|--|
G|------7------7------7----------|X4|
D|-------------------------------|--|
A|-------------------------------|--|
E|-------------------------------|--|
                                                                  _____________________
BAJO: DO                SI5             LA                       | arreglo  X4         |
G|--------------------------------------------------------|---|------------------------------|
D|--------------------------------------------------------|---|------------------------------|
A|3-3-3-3-3-3-3-3-2-2-2-2-2--2-2-2-2--0-0-0-0-0-0-0-0---0-|---|-10-7---10-7---10-7-----10-(9)|
E|--------------------------------------------------------|---|-----10-----10------10--------|


VERSO 1: CON RIFF A ]X8

Si empiezo a desconfiar de mi suerte estoy perdido
Pues tengo ideas cada vez menos atrevidas.
Pero cerca, aquí cerca el lobo aúlla
Despertando al mal hombre, al mago bueno.

POS_VERSO:1

GUITARRA:
   DO5                SI5              LA5                   PUNTEO 1
e|------------------------------------------------------|--|------------|
B|------------------------------------------------------|--|-8p7--------|
G|------------------------------------------------------|%-|-----8/-----| 
D|1010101010101010--9-9-9-9-9-9-9-9-7-7-7-7-7-7-7-7---7-|--|------------|
A|1010101010101010-1010101010101010-7-7-7-7-7-7-7-7---7-|--|------------|
E|-8-8-8-8-8-8-8-8--7-7-7-7-7-7-7-7-5-5-5-5-5-5-5-5---5-|--|------------|

BAJO:
G|----------------------------------------------------------|
D|----------------------------------------------------------|
A|-3-3-3-3-3-3-3-3-2-2-2-2-2--2-2-2-2--0-0-0-0-0-0-0-0---0--|
E|----------------------------------------------------------|

  DO5          SI5                LA5                  PUNTEO 1
    Con un corazón que no puede cumplir más promesas ya.


VERSO 2: (igual)

Los genios son buenos servidores y malos amos.
Si les has visto primorosos, caíste en el lazo.
Tu bolsillo es más profundo que su gracia
Y calcular tu oración puede llevarme la vida.


POS_VERSO 2: (igual)

  DO5          SI5                LA5                 sin punteo
    Con un corazón que no puede cumplir más promesas ya.


ESTRIBILLO1:

BAJO:   SOL         RE                 DO                        DO
G|---------------|------------------|--------------------------|----------------------------|
D|---------------|------------------|--------------------------|----------------------------|x4
A|---------------|-5-5-5-5-55-5-55--|-3--3-3-3-3-3-3-3-3-3-3-3-|---3-3-3-3-3-3-3-3-3-3-3-3--|
E|-3-3-3-3-3-3-3-|------------------|--------------------------|----------------------------|

GUITARRA: [SOL5-  RE5 - DO5]

SOL5                  RE5            DO5
Yo te saqué un dia de allí y me encadené.
SOL5                  RE5            DO5
Te obedecí hasta donde pude, mi genio amor.
SOL5                  RE5            DO5
Me pude apartar de tu corazón en otro crimen más
SOL5                  RE5            DO5
Y me alejé de tu seducción y tu dulce voz.


SOLO DE GUITARRA:

BAJO:   [TODO EN mi]
G|------------------------------------------------------------------------------------------|
D|------------------------------------------------------------------------------------------|
A|------------------------------------------------------------------------------------------|
E|--0-0-0-0-0-00-0-0-0-0-0-0-0-0-0-0-0-0-0-0-0-0-0-0--0-0-0-0-0-0-0-0-0--0-0-0-0-0----------|
     DO                SI                 LA
G|----------------------------------------------------------|
D|----------------------------------------------------------|
A|-3-3-3-3-3-3-3-3-2-2-2-2-2--2-2-2-2--0-0-0-0-0-0-0-0---0--|
E|----------------------------------------------------------|


GUITARRA:         MI              MI                     MI                     MI...
e|--------------------|-------------------------|----------------------------|------------------|
B|-------10b----------|-------------------------|--------------------3--(5)~-|------------------|
G|--9-12-----12-(9)~~-|-7h9-7-------------------|---------------274----------|------12-(12)-14--|
D|--------------------|-------9-7------7--------|-------------5--------------|-12-14------------|
A|--------------------|-----------10-7---10--7~~|-------5--7b----------------|------------------|
E|--------------------|-------------------------|---5-7----------------------|------------------|
                                                 PM.......           DO           SI
e|------------|---------10---------------|-----------------------------|----------------------|
B|-------(15)~|--10-10b-----10b--9p7-9-7-|--8--------------------------|----------------8-----|
G|-12---------|--------------------------|---9-7--7/9-7----------------|----------7-7-9---9---|
D|----14------|--------------------------|--------------9-7------7-----|------5-7-------------|
A|------------|--------------------------|------------------10-7--10-7-|--5-7-----------------|
E|------------|--------------------------|-----------------------------|----------------------|
         LA                                                               PM.........
e|--------10-------|--------------------------|
B|-10-10b----(10b)-|-10b-10b---9p7-9p7--(10b)-|
G|-----------------|--------------------------|
D|-----------------|--------------------------|
A|-----------------|--------------------------|
E|-----------------|--------------------------|  


SOLO DE SAXO:
BAJO:   SOL         RE                 DO                        DO
G|---------------|------------------|--------------------------|----------------------------|
D|---------------|------------------|--------------------------|----------------------------|x4
A|---------------|-5-5-5-5-55-5-55--|-3--3-3-3-3-3-3-3-3-3-3-3-|---3-3-3-3-3-3-3-3-3-3-3-3--|
E|-3-3-3-3-3-3-3-|------------------|--------------------------|----------------------------|

GUITARRA: 
e|----------|---------|---------|---|------------|
B|----------|---------|---------|---|--8--7------|
G|---SOL5---|-RE5-----|--DO5----|X4-|--------(8)-|
D|----------|---------|---------|---|------------|
A|----------|---------|---------|---|------------|
E|----------|---------|---------|---|------------|


VERSO 3: CON RIFF A ]X8

Si empiezo a desconfiar de mi suerte estoy perdido
Pues tengo ideas cada vez menos atrevidas.
Pero cerca, aquí cerca el lobo aúlla
Despertando al mal hombre, al mago bueno.


POS_VERSO 3: (igual)

  DO5          SI5                LA5                 sin punteo
    Con un corazón que no puede cumplir más promesas ya.


ESTRIBILLO 2: (igual)

SOL5                  RE5            DO5
Yo te saqué un dia de allí y me encadené.
SOL5                  RE5            DO5
Te obedecí hasta donde pude, mi genio amor.
SOL5                  RE5            DO5
Me pude apartar de tu corazón en otro crimen más
SOL5                  RE5            DO5
Y me alejé de tu seducción y tu dulce voz.


SOLO DE SAXO FINAL..

BAJO:   SOL         RE                 DO                        DO
G|---------------|------------------|--------------------------|----------------------------|
D|---------------|------------------|--------------------------|----------------------------|x3
A|---------------|-5-5-5-5-5-5-5-5--|-3--3-3-3-3-3-3-3-3-3-3-3-|---3-3-3-3-3-3-3-3-3-3-3-3--|
E|-3-3-3-3-3-3-3-|------------------|--------------------------|----------------------------|

BAJO:   SOL              RE            DO              SI                LA
G|---------------|------------------|----------------|-------------------|----------------------|
D|---------------|------------------|----------------|-------------------|---------------------#|
A|---------------|--5-5-5-5-5-5-5-5-|3-3-3-3-3-3-3-3-|2-2-2-2-2--2-2-2-2-|-0-0-0-0-0-0-0-0---0--|
E|-3-3-3-3-3-3-3-|------------------|----------------|-------------------|----------------------|


GUITARRA: 
e|----------|---------|---------|---|----------|---------|
B|----------|---------|---------|---|----------|---------|
G|---SOL5---|-RE5-----|--DO5----|X3-|---SOL5---|-RE5-----| Y despues...
D|----------|---------|---------|---|----------|---------|
A|----------|---------|---------|---|----------|---------|
E|----------|---------|---------|---|----------|---------|
  DO5                SI5              LA5                     final
e|------------------------------------------------------|--|----------------------|
B|------------------------------------------------------|--|-8-7------------------|
G|------------------------------------------------------|%-|-----9-7--9/11-(9)----| 
D|1010101010101010--9-9-9-9-9-9-9-9-7-7-7-7-7-7-7-7---7-|--|----------------------|
A|1010101010101010-1010101010101010-7-7-7-7-7-7-7-7---7-|--|----------------------|
E|-8-8-8-8-8-8-8-8--7-7-7-7-7-7-7-7-5-5-5-5-5-5-5-5---5-|--|----------------------|


fin....

            
            
Suggest correction
Creating personal tab
Creating personal tab
You can edit any tab online and save it as your Personal.

You can edit, replace or remove any tab part or add personal notes – all changes will be seen only by you.

Personal tabs can be accessed anytime from any device, even offline.
Learn more »
Give kudos to tab author, rate the tab!
1 2 3 4 5
comments
print report bad tab
guest
Wanna post a correction for this tab? Suggest correction