Oops, an error
Loading. Please wait.

Mi Perro Dinamita tab

88 views 1 this week
no commentswrite comment
1 2 3 4 5
3 more votes to show rating
add to favorites
×
Save as Personal and add changes to this tab that will be seen only by you. Learn more ›
×
You can save this tab as Personal to edit and correct it or add notes. All changes will be seen only by you. Learn more »
launch autoscroll
font size
0
reset
how to read this tab
guitar tuner
edit
Autoscroll
slow
fast
+/-
esc
set tempo
stop
intro

BAJO:
      DO                   FA                      DO                SOL             FA
G|--------------------|--|----------8-8--7---|--|--------------|--|--------------|--------------|
D|----------8-8--7----|x4|-----7-10--------10|x2|-------8-8-7--|x2|-------3-3-2--|------1-1-0---|
A|-----7-10--------10-|--|-8-8---------------|--|---7-10-----10|--|----2-5------5|---0-3-----3--|
E|-8-8----------------|--|-------------------|--|8-8-----------|--|-3-3----------|1-1---------1/|
     DO                  SOL
---|----|-----------|----------------|
---|----|-silencio--|----------------|
---|----|----%------|----------------|
---|-8--|-----------|-3-3-3-3-3-3-3--|


guitarra:
          fraseo DO  ó DO7              FraseoFA                DO7       fraseo SOL ó sol7
E|-------------|-------------|--|-------------|-------------|--|-----|--|----------------|--
B|-------------|-------------|--|-------------|-------------|--|-----|--|----------------|--
G|-------------|-------------|x4|-------------|-------------|X2|-----|x2|----------------|--
D|-------------|-------------|--|-10-10-12-10-|-10-10-12-10-|--|-Do7-|--|----------------|--
A|-10-10-12-10-|-10-10-12-10-|--|-8--8--8--8--|-8--8--8--8--|--|-----|--|5-5-7-5--5-7-5--|--
E|-8--8--8--8--|-8--8--8--8--|--|-------------|-------------|--|-----|--|3-3-3-3--3-3-3--|--

     Riff FA           DO                 SOL
---|-----------------|------|----------|----------------|
---|-----------------|------|----------|----------------|
---|-----------------|------|-silencio-|----------------|
---|-----3-1--3-(1)--|--10--|---%------|----------------|
---|-(3)-------------|--10--|----------|-5-5-5-5-5-5-5--|
---|-(1)-----------1/|--8---|----------|-3-3-3-3-3-3-3--|

                            ¿porque, si es un rock'n roll?

VERSO 1: (Con fraseos )


DO7
Yo no se, si a tu perro le gusta ladrar a lo bobo
        FA
mi perro ­no! no quiere ­no!
DO7
con el hocico afiebrado ­no!
    SOL               riff FA
recuperando palitos, corriendo a lo bobo

DO    (silencio)                        SOL
     ¿porque, si es su rock'n roll?


VERSO 2: (igual)

DO7
No es culo mojado
FA                         DO7
­no! quizá  algún fueguito...
SOL                        riff  FA
Aquí¡ y allá  algún fueguito ensaya mi perro

DO    (silencio)                        SOL
     ¿porque, si es su rock'n roll?


SOLO DE SAXO:
BAJO:
      DO                   FA                      DO                SOL             FA
G|--------------------|--|----------8-8--7---|--|--------------|--|--------------|--------------|
D|----------8-8--7----|x4|-----7-10--------10|x2|-------8-8-7--|x2|-------3-3-2--|------1-1-0---|
A|-----7-10--------10-|--|-8-8---------------|--|---7-10-----10|--|----2-5------5|---0-3-----3--|
E|-8-8----------------|--|-------------------|--|8-8-----------|--|-3-3----------|1-1---------1/|
     DO                  SOL
---|----|-----------|----------------|
---|----|-silencio--|----------------|
---|----|----%------|----------------|
---|-8--|-----------|-3-3-3-3-3-3-3--|


guitarra:
[fraseo DO  ó DO7 ]x4 - [FraseoFA ]x2 -  [DO7]x2- [ fraseo SOL ó sol7] -[Riff FA] -[do] -
(silencio) - [sol]-

    
VERSO 3: (igual)

DO7
Mi perro dinamita est  fiero como un tartaro
        FA
y gruñe ­no! Rechaza ­no!
DO7
No mueve el rabo con docilidad
    SOL           riff FA
ni D  LA patita, ni hace el muertito

DO    (silencio)               SOL
    y aúlla este rock'n roll!


SOLO DE GUITARRA:

BAJO:
     DO                   FA                      DO                SOL             FA
G|--------------------|--|----------8-8--7---|--|--------------|--|--------------|--------------|
D|----------8-8--7----|x4|-----7-10--------10|x2|-------8-8-7--|x2|-------3-3-2--|------1-1-0---|
A|-----7-10--------10-|--|-8-8---------------|--|---7-10-----10|--|----2-5------5|---0-3-----3--|
E|-8-8----------------|--|-------------------|--|8-8-----------|--|-3-3----------|1-1---------1/|
     DO                  SOL
---|----|-----------|----------------|
---|----|-silencio--|----------------|
---|----|----%------|----------------|
---|-8--|-----------|-3-3-3-3-3-3-3--|


Guitarra (solo):
       DO                                                    FA
E|------------------------------------------------------|-8-11-11--8-11-11--8-11-11--8-11-11--8-|
B|-8-8b--(8b)--8-8--------------------------------------|-8-11-11--8-11-11--8-11-11--8-11-11--8-|
G|-8-8b--(8b)--8-8------------------8-10--(10br)-8------|---------------------------------------|
D|------------------(10~)------8-10----------------(10~)|---------------------------------------|
A|------------------------8-10--------------------------|---------------------------------------|
E|------------------------------------------------------|---------------------------------------|
     DO                                        SOL           FA                   silencio
E|---------------------------------------|-----8--------|-----8--------------|8-8-11-11-8-8-----|
B|8------(10br)--------------------------|--------------|-------10-8--10-(8)-|8-8-11-11-8-8-10-8|
G|-10-8-(10br)-8-(10)-8---------8--------|(10b)--10br-8-|-10b----------------|--------------10-8|
D|----------------------10--------10~-10~|--------------|--------------------|------------------|
A|-------------------------8-10----------|--------------|--------------------|------------------|
E|---------------------------------------|--------------|--------------------|------------------|
    SOl
--|-----------------|
--|-(10br)----------|
--|-(10br)--8-------|
--|-----------------|
--|-----------(10~)-|
--|-----------------|


br: estirar y volver
b: estirada


4to VERSO: (igual)

DO7
Yo no se, si a tu perro le gusta ladrar a lo bobo
        FA
mi perro ­no! no quiere ­no!
DO7
con el hocico afiebrado ­no!
    SOL               riff FA
recuperando palitos, corriendo a lo bobo

DO    (silencio)                        SOL
     ¿porque, si es su rock'n roll?


5to VERSO; (igual)

DO7                    
Y dice ­no! y me desobedece
  FA                          DO7
­no! y es lo mejor que hace
         SOL
aquí¡ y allá  el muy zorrito
    riff  FA
la va de rififi
DO                                  DO (fin)
   ­porque este es su rock'n roll !


FINAL: TERMINA con guitarra y bajo en DO...

fin DO7
E|----8-------|
B|----8-------|
G|----9-------|
D|----8-------|
A|----10------|
E|----8-------|

            
            
Suggest correction
Creating personal tab
Creating personal tab
You can edit any tab online and save it as your Personal.

You can edit, replace or remove any tab part or add personal notes – all changes will be seen only by you.

Personal tabs can be accessed anytime from any device, even offline.
Learn more »
Give kudos to tab author, rate the tab!
1 2 3 4 5
comments
print report bad tab
guest
Wanna post a correction for this tab? Suggest correction