Oops, an error
Loading. Please wait.

Murga De La Virgencita tab

version 1
version 1

Whole song

34 views 1 this week
no commentswrite comment
1 2 3 4 5
3 more votes to show rating
add to favorites
×
Save as Personal and add changes to this tab that will be seen only by you. Learn more ›
×
You can save this tab as Personal to edit and correct it or add notes. All changes will be seen only by you. Learn more »
launch autoscroll
font size
0
reset
how to read this tab
guitar tuner
edit
Autoscroll
slow
fast
+/-
esc
set tempo
stop
 Intro: (Em-G)
Guitarra 1:   (Em)                (G)
E|-------------------------------------------------------------|
b|-------------------------------------------------------------|
G|-------------------------------------------------------------|X4
D|--9-----------9-9-9--9-------------------12-12-12-12--/------|
A|--7--7-7-7-7--7-7-7--7-/-10-10-10-10-10--10-10-10-10--/------|
E|-------------------------------------------------------------|
Guitarra 2:  (Em)                        (G)
E|-----------------------------|-------------------------------|
B|---12---12--12---12---12-----|----15---15--15---15--15-------|
G|--9----9---9----9---9----9---|--12---12--12---12--12---12----|X2
D|-----------------------------|-------------------------------|
A|-----------------------------|-------------------------------|

Bajo:  (Em)                         (G)
G|-----------------------------|-------------------------------|
D|-----------------------------|--------------------2----------|X2
A|-----------------------------|--------------2--5-------------|
E|--0--0--0---0-0-0------------|---3---3-3---------------------|


 (Em)           (G)
Marita lo hace por guita
Con los bomberos del cuartel
Su barrio es tan inclemente
Y su comparsa siempre es cruel.
 (C)
Sueña con que su rollo sea  [Em]          [G]
Película de amores suaves. ah ah ah ah ah áh  eh eh eh eh  x2
 (Em)         (G)
La murga de la virgencita
Es aguijón picante y miel
Se tambalea en sus tacones
No tiene nada que perder...
 (C)
Nunca pudo comer del queso      [Em]           [G]
Sin que la trampera la aplaste. ah ah ah ah ah áh  eh eh eh eh  x2

(E5)VII              (E)  (E5)(VII)
Los coches van y vienen
(E5)VII         (E)  (E5)(VII)
Y su ilusión fulana

(Am)
Se empolva la nariz
Muerde el labio y va otra vez
Para ahogar...

(E5)VII        (E)  (E5)(VII)
arcadas gusto a menta
(E5)VII            (E)  (E5)(VII)
Junto con sus bostezos

(Am)
Sus chulos son legión
De "cucharangos" que hacen temblar.

(E5)VII        (E)  (E5)(VII)
De miedo su boquita
(E5)VII         (E)  (E5)(VII)
Ay! ay! mi virgencita!

Violin:
(F#)
Se maquilla la piel
Para el túnel del amor
(Em)
Y también para su tren fantasma
(con la boquita seca)
(F#)
Será el propio buen dios
Quién toca así el tambor
Y que...
(E5)VII        (E)  (E5)(VII)
ahuyenta su clientela
(E5)VII             (E)  (E5)(VII)
Y la aflije con tristezas.
(C)
Pilchitas de poliester(Em)           [G]
Y santidad de virgen.  ah ah ah ah ah áh  eh eh eh eh  x2

(E5)VII            (E)  (E5)(VII)
Milagro más milagro menos
(E5)VII               (E)  (E5)(VII)
Otra polilla en busca de la luz
(C)
La murga de esa virgencita  [Em]           [G]
Que no quiere besar a nadie. ah ah ah ah ah áh  eh eh eh eh  x7

            
            
Suggest correction
Creating personal tab
Creating personal tab
You can edit any tab online and save it as your Personal.

You can edit, replace or remove any tab part or add personal notes – all changes will be seen only by you.

Personal tabs can be accessed anytime from any device, even offline.
Learn more »
Give kudos to tab author, rate the tab!
1 2 3 4 5
comments
print report bad tab
guest
Wanna post a correction for this tab? Suggest correction