Oops, an error
Loading. Please wait.

Rock De Las Abejas tab

39 views 1 this week
no commentswrite comment
1 2 3 4 5
3 more votes to show rating
add to favorites
×
Save as Personal and add changes to this tab that will be seen only by you. Learn more ›
×
You can save this tab as Personal to edit and correct it or add notes. All changes will be seen only by you. Learn more »
launch autoscroll
font size
0
reset
how to read this tab
guitar tuner
edit
Autoscroll
slow
fast
+/-
esc
set tempo
stop
Rock De Las Abejas

(Solari - Beilinson)

Intro. (Punteo #1):

e-7-7-7-7-----5-5------3-----------|----|
B------------------------3--4--3---|----|
G----------------------------------|x4--|
D----------------------------------|----|
A----------------------------------|----|
E----------------------------------|----|

En la parte de saxo la guitarra la acompaña:

e-------------------------------|---|
B-------------------------------|---|
G-2-2---2---3--2---3----5-------|X2-|
D-------------------------------|---|
A-------------------------------|---|
E-------------------------------|---|
                                    ___
e-------------------------------|--|   |
B-------------------------------|--|   |
G-------------------------------|x2|   |_x4
A-3-3---3---5--3---5----7-------|--|   |
D-------------------------------|--|   |
E-------------------------------|--|___|
Después de la parte del saxo:

e-8-8--6--8-8--6--8-8--|---------------------------------|
B----------------------|--10-10--9--11-11--9--10-11------|
G----------------------|---------------------------------|
D----------------------|---------------------------------|
A----------------------|---------------------------------|
E----------------------|---------------------------------|


(Punteo #1)Se toca 2 veces. La segunda vez
sin la última nota


A
Negro, esto es mucho más lindo
después de la clandestinidad.


(Punteo #1)Se vuelve a tocar 2 veces. La segunda vez
sin la última nota.


A
Los ojitos tristes te sientan
y un buen par de tarros te vas a comprar.

F#
Cuando te de den tu astillita
E
vas a putear y putear
F#
con tanto tiempo inactivo
    E               A
el ñamfi se te enfrió y sos un punto más.


(Punteo #1)Se vuelve a tocar 2 veces. La segunda vez
sin la última nota.


A
Desde que fumás malvaloca
ni te acordás que fuiste un chabón,


(Punteo #1)Se vuelve a tocar 2 veces. La segunda vez
sin la última nota.


A
al que mandó una pupila
acomodada en un celular.


(Punteo #1) Acá se toca el punteo completo


F#
Y va coreando la pobre,
E
dele carajo y putear,
F#
te mando a cafúa gritando.
   E             A
el súper-gordo-súper de Navidad.


e--14-14b--14-12----14--|--12-12b--12-10-----12/-|
B----------------14-----|-----------------12-----|
G-----------------------|------------------------|
D-----------------------|------------------------|
A-----------------------|------------------------|
E-----------------------|------------------------|

e-7-7-7-7-----5-5------3-----------|
B------------------------3--4--3---|
G----------------------------------|
D----------------------------------|
A----------------------------------|
E----------------------------------|

Fin

|_________________________________________________________|
|                                                         |

Dedicado a Facu y a Paulo


Aguante los Redondos!!!

            
            
Suggest correction
Creating personal tab
Creating personal tab
You can edit any tab online and save it as your Personal.

You can edit, replace or remove any tab part or add personal notes – all changes will be seen only by you.

Personal tabs can be accessed anytime from any device, even offline.
Learn more »
Give kudos to tab author, rate the tab!
1 2 3 4 5
comments
print report bad tab
guest
Wanna post a correction for this tab? Suggest correction