Oops, an error
Loading. Please wait.

Salando Las Heridas bass

version 2
version 2

Whole song

Interactive

67 views 1 this week
no commentswrite comment
1 2 3 4 5
3 more votes to show rating
add to favorites
×
Save as Personal and add changes to this tab that will be seen only by you. Learn more ›
×
You can save this tab as Personal to edit and correct it or add notes. All changes will be seen only by you. Learn more »
launch autoscroll
font size
0
reset
guitar tuner
edit
Autoscroll
slow
fast
+/-
esc
set tempo
stop
Intro:
G|--------------|x3 |-----0~----|
D|-0-2-3--------|   |-0-2-------|
A|--------3-2-0-|   |-----------|
E|--------------|   |--------3~-|

**Verso:
('Saliste ya mil veces...')
G|------------------|x3    |-------------------|x3
D|-0-2-3--00-22-----|      |-0-2-3--00-22/7~---|
A|--------------00--|      |-------------------|
E|------------------|      |-------------------|

('un día el bote volcó...')
G|-------------------------------------------------|
D|-7--7--77---5--5--55----4--4--44--3--33--0-------|
A|-------------------------------------------23----|
E|-------------------------------------------------|

('y vos allí en mi remolque...')
G|-------------------------------------------------|
D|-------------------------------------------------|
A|-0000-0000---------------------------------------|
E|-------------3333-3333---1111-1111---1-----------|

('Mirá que tipo espeso...')
G|------------------|x3    |-------------------|x3
D|-0-2-3--00-22-----|      |-0-2-3--00-22/7~---|
A|--------------00--|      |-------------------|
E|------------------|      |-------------------|

('Fundiendo plomo lográs chorros de oro cochino...')
G|-------------------------------------------------|
D|-7--7--77---5--5--55----4--4--44--3--33--0-------|
A|-------------------------------------------23----|
E|-------------------------------------------------|

('Pero el café con tu suerte se enfría en mi mesa fría...')
G|-------------------------------------------------|
D|-------------------------------------------------|
A|-0000-0000---------------------------------------|
E|-------------3333-3333---1111-1111---1-----------|


PUENTE:
G|----------------------|--------------------------------|
D|----------------------|--------------------------------|
A|-5/7~------5~/7~------|-5/7~--------5~/7~--------------|
E|-------0~---------0~--|-------0~-----------0000-0000---|

Solo de Guitarra:
G|------------------------------------------|x3
D|------------------------------------------|
A|------------------------------------------|
E|-5555-5555-3333 3333-2222-2222-1111-3131--|

G|------------------------------------------|
D|------------------------------------------|
A|------------------------------------------|
E|-5555-5555-3333-3333-2222-2222-1----------|

('apuntamos a tu nariz...')
G|---------------------|
D|---------------------|
A|---------------------|
E|---------------------|

('no te quedó sueño por vengar...')
G|------------------------------------------|
D|------------------------------------------|
A|------------------------------------------|
E|-5555-5555-3333-3333-2222-2222-1----------|

**REPITE TODO DESDE EL PRIMER VERSO

Buenas, esta transcripción es muy similar a la que está en el cover
del siguiente video (del cual no soy autor pero que resultó muy útil):
---] 

Gracias a TheMakanaki22, por el video.

Saludos.
Etilico120

            
            
Suggest correction
Creating personal tab
Creating personal tab
You can edit any tab online and save it as your Personal.

You can edit, replace or remove any tab part or add personal notes – all changes will be seen only by you.

Personal tabs can be accessed anytime from any device, even offline.
Learn more »
Give kudos to tab author, rate the tab!
1 2 3 4 5
comments
print report bad tab
guest
Wanna post a correction for this tab? Suggest correction