Oops, an error
Loading. Please wait.

Scaramanzia tab

version 2
version 2

Whole song

87 views 3 this week
no commentswrite comment
1 2 3 4 5
3 more votes to show rating
add to favorites
×
Save as Personal and add changes to this tab that will be seen only by you. Learn more ›
×
You can save this tab as Personal to edit and correct it or add notes. All changes will be seen only by you. Learn more »
launch autoscroll
font size
0
reset
how to read this tab
guitar tuner
edit
Autoscroll
slow
fast
+/-
esc
set tempo
stop
INTRO:
GUITARRA 1:(Parte A)
    MIm             MIm         MIm      SOL   MIm      DOm    MIm       DOm
e|-------0-----------0-------|-(0)------------(0)----|------|----------|---------|
B|------0------------0-------|-(0)------------(0)----|--(4)-|----------|--(4)----|
G|-----0-------------0-------|-(0)------------(0)----|--(5)-|--(0)-----|--(5)----|
D|----2--------5-----2-------|-(2)--------5---(2)----|--(5)-|--(2)-----|--(5)----|
A|---2---------5-----2-------|-(2)--------5---(2)----|--(3)-|--(2)-----|--(3)----|
E|--0----------3-----0-------|-(0)--------3---(0)----|------|--(0)-----|---------|

GUITARRA 2: (parte A)                                   DOm                  DOm
e|----------------------------|----------------------|------|-3----3~------|------8---8--7h8p(7)|
B|----------------------------|----------------------|------|--4------/(5)~|-------8------------|
G|----------------------------|-/9-------------------|------|----5---------|--------9-----------|
D|-/-(9)--/(7)--5-/-(9)~------|----/7--5--/(9)~------|------|--------------|--------------------|
A|-----------------------7-(7)|-----------------7-7~-|-/(3)~|--------------|/(3)~---------------|
E|----------------------------|----------------------|------|--------------|--------------------|

BAJO: (Parte A)   MI                   DO
G|-----------------------------|---|------------------------------|-----|------|
D|-----------------------------|X16|------------------------------|--MI-|--DO--|
A|-----6/7-----6/7-----6/7-----|---|-(3)---3-3----3-3---3-3---3---|--x1-|--X1--|
E|-0-0-----0-0-----0-0-----0-0-|---|-----3------3-----3---------3-|-----|------|

Y sigue asi...

 PARTE B:
**********

GUITARRA 1:
  MI
e|-0-0--------0-0--------0-0----------2--2-----|
B|-0-0--------0-0--------0-0----------3--3-----|
G|-0-0--------0-0--------0-0----------2--2-----|X2
D|---------------------------------------------|
A|------2-2--------2-2--------2-2-2---------2--|
E|------0-0--------0-0--------0-0-0---------0--|
   PM   ...        ...        .....         .

BAJO y GUITARRA 2:  MI
G|-------------------------------------|----------------------------------|
D|---------------------------5---------|---------------------------5------|
A|-7---5-7-7----5-7-7----5-7---7-5-7-7-|-7---5-7-7----5-7-7----5-7---7-5--|
E|---7--------7-------7----------------|---7--------7-------7-------------|


VERSO 1:

LAm                SOL LAm    
Un nuevo juego ligué     
LAm                
Donde sos la heroína.

GUITARRA:  LAm
e|------------------------------------|
B|------------------------------------|
G|------------------------------------|X2
D|------7-7-7-(7)--5/7-7-7-7--/5-5-5--|
A|-5-/--7-7-7-(7)--5/7-7-7-7--/5-5-5--|
E|-3-/--5-5-5-(5)--3/5-5-5-5--/3-3-3--|

BAJO:    LA
G|------------------------------------------|------------------------------------------|
D|------------------------------------------|------------------------------------------|
A|------------------------------------------|------------------------------------------|
E|----5-5--3---5-5--3---5-5--3--5-3-0-5--3--|----5-5--3---5-5--3---5-5--3--5-3-0-5--3--|


ESTRIBILLO 1:
GUITARRA 1:
  MI                                   RE
e|-0-0--------0-0--------0-0----------2--2-----|
B|-0-0--------0-0--------0-0----------3--3-----|
G|-0-0--------0-0--------0-0----------2--2-----|X2
D|---------------------------------------------|
A|------2-2--------2-2--------2-2-2---------2--|
E|------0-0--------0-0--------0-0-0---------0--|
   PM   ...        ...        .....         .

BAJO :  MI
G|-------------------------------------|----------------------------------|
D|---------------------------5---------|---------------------------5------|
A|-7---5-7-7----5-7-7----5-7---7-5-7-7-|-7---5-7-7----5-7-7----5-7---7-5--|
E|---7--------7-------7----------------|---7--------7-------7-------------|

GUITARRA 2:    MI

e|------------------------------------|
B|------------------------------------|
G|------9-9-9-(9)--7/9-9-9-9--/7-7-7--|
D|-7-/--9-9-9-(9)--7/9-9-9-9--/7-7-7--|
A|-5-/--7-7-7-(7)--5/7-7-7-7--/5-5-5--|
E|------------------------------------|

MIm                           RE
 Scaramanzia, cábala de amor virtual.
MIm                           RE
 Scaramanzia para un sony samurai.


VERSO 2: (igual)

"Y voy a comer del pastel
Que llamás 'la vampira'."


ESTRIBILLO 2: (igual)

MIm                           RE
 Scaramanzia, cábala de amor virtual.
MIm                           RE
 Scaramanzia para un sony samurai.


INTERMEDIO:


G           F# G            F#
 Yo sólo espero vivir tus juegos
    Am        Bm        C                  B
Y luego no quiero que vuelvas a ser nunca más
                    
(Como eras antes, no.)


GUITARRA 1: SOl    FA#        SOl           FA#        LA      SI     DO         SI 
e|------------|------------|------------|------------|------|------|------|----|----------------|
B|------------|------------|------------|------------|------|------|------|----|----------------|
G|------------|------------|------------|------------|------|------|--(5)-|-#--|---------------%|
D|--(5)-----5-|--(4)-----4-|--(5)-----5-|--(4)-----4-|--(7)-|--(9)-|--(5)-|----|-9-9-9-9-9-9-9--|
A|--(5)-----5-|--(4)-----4-|--(5)-----5-|--(4)-----4-|--(7)-|--(9)-|--(3)-|----|-9-9-9-9-9-9-9--|
E|--(3)-----3-|--(2)-----2-|--(3)-----3-|--(2)-----2-|--(5)-|--(7)-|------|----|-7-7-7-7-7-7-7--|

BAjO:  SOl         FA#            SOl           FA#          LA      SI     DO         SI 
G|-------------|-------------|--------------|-------------|-------|-------|--------|------------|
D|-------------|-------------|--------------|-------------|-------|-------|--------|-----------%|
A|-------------|-------------|--------------|-------------|-------|-------|--------|------------|
E|--3-3--0-3-3-|3--2-2-0-2-2-|2-3-3-0-3-3-3-|-2-2-0-2-2-2-|-5-5-5-|-7-7-7-|-8-8-(8)|(7)7777777--|

GUITARRA 2 (arpegio)
   SOl                 FA#                   LA       SI          DO7           SI7         SI7
e|---------3--------|----------2-------|--|--------|--------|----------------|-------------|-(7)|
B|------------------|------------2-----|--|--------|--------|----------------|--------7----|-(7)|
G|-----4-------4----|---3----------3---|X2|--------|--------|----------7-----|----------8--|-(8)|
D|---5--5----5---5--|-----4----------4-|--|-----7--|------9-|------8-----8---|-----7-----7-|-(7)|
A|------------------|------------------|--|---7---7|----9---|---10--10-------|---9---9-----|-(9)|
E|-3----------------|-2------2---------|--|-5------|--7-----|-8------------8-|-7-----------|-(7)|


SOLO DE VIOLIN:
BAJO:
G|-------------------------------|---------------------------------------|
D|---------5-5--5-5--4-4-4-4-----|-------------5-5-5-5--4-4-4-4-------%--|X4
A|-/-7-7-7-------------------5-5-|----(7)--7-7------------------5-5------|
E|-------------------------------|--7------------------------------------|

GUITARRA [MIm-SOL-RE-RE] X4


Violin (Arreglo):

e|-----------|--------------------|-----------|---------15-14-12-------|-12---------------------|
B|------(12)-|--8-8-7-8-----------|-10-12-----|-----(12)--------15-(12)|----12------------------|
G|--(9)------|----------9---------|-------11--|-(9)--------------------|------12-11--9----------|
D|-----------|------------9h10p(9)|-----------|------------------------|---------------10-9-(7)-|
A|-----------|--------------------|-----------|------------------------|------------------------|
E|-----------|--------------------|-----------|------------------------|------------------------|


VERSO 3 (igual)

"Me voy a ir junto a vos
Bien lejos de este mundo."


ESTRIBILLO 3 (igual)

MIm                           RE
 Scaramanzia, cábala de amor virtual.
MIm                           RE
 Scaramanzia para un sony samurai.

VERSO 4 (igual)


"La buena felicidad
Dicen que no se nota."


ESTRIBILLO 4 (igual)
MIm                           RE
 Scaramanzia, cábala de amor virtual.
MIm                           RE
 Scaramanzia para un sony samurai.


INTERMEDIO 2: (igual)

"Hoy todos somos gente del pasado
Y la alucineta es que nadie quiere volver
A ser como antes, no."


FINAL (con solo de violin)

BAJO:
G|-------------------------------|---------------------------------------|
D|---------5-5--5-5--4-4-4-4-----|-------------5-5-5-5--4-4-4-4-------%--|X20   fade out
A|-/-7-7-7-------------------5-5-|----(7)--7-7------------------5-5------|
E|-------------------------------|--7------------------------------------|

GUITARRA [MIm-SOL-RE-RE] X20   fade out

fin:

            
            
Suggest correction
Creating personal tab
Creating personal tab
You can edit any tab online and save it as your Personal.

You can edit, replace or remove any tab part or add personal notes – all changes will be seen only by you.

Personal tabs can be accessed anytime from any device, even offline.
Learn more »
Give kudos to tab author, rate the tab!
1 2 3 4 5
comments
print report bad tab
guest
Wanna post a correction for this tab? Suggest correction