Oops, an error
Loading. Please wait.
50 views 3 this week
no commentswrite comment
1 2 3 4 5
3 more votes to show rating
add to favorites
×
Save as Personal and add changes to this tab that will be seen only by you. Learn more ›
×
You can save this tab as Personal to edit and correct it or add notes. All changes will be seen only by you. Learn more »
launch autoscroll
font size
0
reset
how to read this tab
guitar tuner
edit
Autoscroll
slow
fast
+/-
esc
set tempo
stop
INTRO [LA]

VERSO 1 :

GUITARRA:
e|--------|--------|
B|--------|--------|
G|--LAm---|--MIm---|X4
D|--------|--------|
A|--------|--------|
E|--------|--------|

BAJO:
G|----------------|-----------|
D|----------------|-----------|
A|----------------|-----------|X4
E|--0-5--5-5--8p7-|-(0)-0-0-0-|

arreglo (instrumento xx)
e|--------------------|
B|--------------------|
G|--------------5--4--|X4
D|----(7)~---7--------|
A|--7-----------------|
E|--------------------|


LAm
sheriff! sheriff! sheriff!
MIm
que limpio el templo esta!
LAm
sheriff! sheriff! sheriff!
MIm
si ali baba se va!
LAm
sheriff! sheriff! sheriff!
MIm
todo en su sitio asi
LAm
son tres tiros a un peso 
MIm 
y la guita es miel...


ESTRIBILLO 1:

GUITARRA 1:  MI
e|---------------------------------------------|
B|---------------------------------------------|
G|---------------------------------------------|X4
D|---------------------------------------------|
A|-------7~----------7~--------7~----------7~--|
E|---0-0------0-0-0-------0-0-------0-0-0------|

GUITARRA 2:
e|---------|--|---------|------|--------|-------|
B|---------|--|---------|------|--------|-------|
G|---#-----|X2|--7-9--7-|--7-9-|--7-9-7-|--7--9-|
D|---------|--|---------|------|--------|-------|
A|---------|--|---------|------|--------|-------|
E|---------|--|---------|------|--------|-------|

BAJO:
D|----------------------------------------------|
D|----------------------------------------------|X4
A|----------------------------------------------|
E|---0-0------0-0-0-------0-0-------0-0-0-------|


MI
sos como el fuego en un cañaveral!
MI
un kamikase que amenisa la funcion!
MI
tarde en la noche plaza constitucion!
MI
hay sangre rancia de tramontina tajeador


VERSO 2:
GUITARRA : 
   LA           MIm          LAm       MIm               enganche
e|-----(5)--|--------(0)-|-----(5)--|------0------|    |-----------|
B|---(5)----|------0-----|---(5)----|--------0----|    |-----------|
G|-(5)------|---0--------|-(5)------|----------0--|X2  |-----------|
D|----------|------------|----------|-------------|    |-----------|
A|----------|-2----------|----------|-------------|    |-----------|
E|----------|-0----------|----------|--0----------|    |--3-2-(0)--|

LAm
sheriff! sheriff! sheriff!
MIm
tapales la nariz!
LAm
sheriff! sheriff! sheriff!
MIm
con bollitos de tissue!
LAm
sheriff! sheriff! sheriff!
MIm
ladra, ladra y morde
LAm
no permitas que pise
MIm               (enganche)
mierda en mi jardin...


ESTRIBILLO 2: (igual)

MI
No tienen Norte, no tienen salvacion
hace el trabajo y..redimilos por favor
que se mejoren,alla en la eternidad
(partiles el buñuelo y quita mi pena asi..)


SOLO DE GUITARRA:

GUITARRA 1:
e|--------|--------|
B|--------|--------|
G|--LAm---|--MIm---|X4
D|--------|--------|
A|--------|--------|
E|--------|--------|

BAJO:
G|----------------|-----------|
D|----------------|-----------|
A|----------------|-----------|X4
E|--0-5--5-5--8p7-|-(0)-0-0-0-|


Guitarra (solo).
e|---------------|------------------------|----10----------------|--------------|------------|---
B|------10-(10~)-|-10b-10p8--------8------|-11b--11-10-12--------|--------------|-8b---------|9b-
G|--7-9----------|----------9-7-9----(9)~-|---------------(10~)--|--------------|---9-7-(9)~-|---
D|---------------|------------------------|----------------------|-7-5---5---5--|------------|---
A|---------------|------------------------|----------------------|-----7---7----|------------|---
E|---------------|------------------------|----------------------|--------------|------------|---

e|---10----10/(12)-|-12-12p10----------|-----------|------|------|19-17-15-17------|-------------
B|-8---12----------|----------------10-|-10p8------|-(8b)-|------|-----------------|------10-10b-
G|-----------------|----------12p9-----|------(9)~-|------|-(9~)-|------------(17)-|-9-12--------
D|-----------------|-------------------|-----------|------|------|-----------------|-------------
A|-----------------|-------------------|-----------|------|------|-----------------|-------------
E|-----------------|-------------------|-----------|------|------|-----------------|-------------

------------------|
-10--8h10---------|
-----------(9)----|
------------------|
------------------|
------------------|

INTERMEDIO:
BAJO:
G|------------|--|----------------|--|
D|------------|X8|----------------|X4|
A|------------|--|----------------|--|
E|---(0)------|--|--(0)--0-0-(0)--|--|

GUITARRA 2
arreglo
e|------------------|--|
B|------------------|--|
G|------------------|X8|
D|-----5-7-8-7--5-7-|--|
A|-7-7--------------|--|
E|------------------|--|

GUITARRA 1 (empieza en la vuelta 6 de guitarra 2)

e|--------|--------------------------------------------------------|
B|----5---|--8b-p(7)--8b-p(7)--7h8p(7)--8b-p(7)--8b-p(7)--7h8/(10)-|
G|--7---7-|--------------------------------------------------------|
D|--------|--------------------------------------------------------|
A|--------|--------------------------------------------------------|
E|--------|--------------------------------------------------------|


VERSO 3 (igual al verso 2)

GUITARRA : 
   LA           MIm          LAm       MIm               enganche
e|-----(5)--|--------(0)-|-----(5)--|------0------|    |-----------|
B|---(5)----|------0-----|---(5)----|--------0----|    |-----------|
G|-(5)------|---0--------|-(5)------|----------0--|X2  |-----------|
D|----------|------------|----------|-------------|    |-----------|
A|----------|-2----------|----------|-------------|    |-----------|
E|----------|-0----------|----------|--0----------|    |--3-2-(0)--|

"
LAm
sheriff! sheriff! sheriff!
MIm
Mi sheriff gigolo!
LAm
sheriff! sheriff! sheriff!
MIm
mete bala por favor!
LAm
sheriff! sheriff! sheriff!
MIm
con tu gracia criminal
lamempeza ya la puta cosa  
MIm               (enganche)
y se feroz...


ESTRIBILLO 3: (igual)

"Es un rebaño, de rehenes tu porcion
con un infiernio en.. cada esquina y sin control
te quiero frio, despiadado y fatal
pasamontañas con.. buen hocico rastreador


VERSO 4 (igual):

"Afilando tu guadaña me esperas
con yu chivo taqueroves y rezongas
Algun dia sera esta vida hermosa
y me someto por eso a tu voluntad


FINAL: (fade out)

GUITARRA : 
   LA           MIm          LAm       MIm               
e|-----(5)--|--------(0)-|-----(5)--|------0------|   
B|---(5)----|------0-----|---(5)----|--------0----|    
G|-(5)------|---0--------|-(5)------|----------0--|X8  fade out 
D|----------|------------|----------|-------------|    
A|----------|-2----------|----------|-------------|    
E|----------|-0----------|----------|--0----------|   

BAJO:
G|----------------|-----------|
D|----------------|-----------|
A|----------------|-----------|X8
E|--0-5--5-5--8p7-|-(0)-0-0-0-|


sheriff! sheriff! sheriff!

sheriff! sheriff! sheriff!


fin.

            
            
Suggest correction
Creating personal tab
Creating personal tab
You can edit any tab online and save it as your Personal.

You can edit, replace or remove any tab part or add personal notes – all changes will be seen only by you.

Personal tabs can be accessed anytime from any device, even offline.
Learn more »
Give kudos to tab author, rate the tab!
1 2 3 4 5
comments
print report bad tab
guest
Wanna post a correction for this tab? Suggest correction