Oops, an error
Loading. Please wait.

Tarea Fina tab

version 3
version 3

Whole song

103 views 3 this week
no commentswrite comment
1 2 3 4 5
3 more votes to show rating
add to favorites
×
Save as Personal and add changes to this tab that will be seen only by you. Learn more ›
×
You can save this tab as Personal to edit and correct it or add notes. All changes will be seen only by you. Learn more »
launch autoscroll
font size
0
reset
how to read this tab
guitar tuner
edit
Autoscroll
slow
fast
+/-
esc
set tempo
stop
intro

Guitarra:
          DO                DO               DO                LA             LA
e|---------------------------------------------------------|--------------------------------|
B|---------------------------------------------------------|--------------------------------|
G|--------0---------------------------0----------0---------|--------------------------------|
D|------2---(2)~------2-0-----------2---(2)~--------0/-(2)-|--------------------------------|
A|--3-3-----------3-3-----(3)~--3-3----------3-3-----------|---------0-5-(7)--------0-5-(7)-|
E|---------------------------------------------------------|--5-5--8----------5-5--8--------|
PM  ...           ...           ...          ...              ...             ...
      LA                  SOL
e|-------------------|----------------||
B|-------------------|-------8--8--8--||
G|-------------------|-(7)---7--7--7--||
D|-------------5-2-/-|-(5)---5--5--5--||
A|----------0--------|----------------||
E|---5-5--8----------|----------------||
 PM  ...      

BAJO:
         DO              *        LA                  SOL
G|------------------|--|-----|------------------|--|----------------------|  
D|------------------|x4|-----|------------------|x3|----------------------|
A|--3-------------0-|--|-----|------------------|--|----------------------|
E|----5-3----3-5----|--|0-3-5|--5-3-0-(5)-3--03-|--|--3--3-3--333333------|  

* es el enganche entre nota y nota.

VERSO 1:

BAJO:
         DO              *        LA                  SOL
G|------------------|--|-----|------------------|--|----------------------|  
D|------------------|x8|-----|------------------|x7|----------------------|
A|--3-------------0-|--|-----|------------------|--|----------------------|
E|----5-3----3-5----|--|0-3-5|--5-3-0-(5)-3--03-|--|--3--3-3--333333------|  

  DO
Quemando la turbina te escapás.
¿Vas a volver a herirme otra vez?
         LA
En tu ternura está acechándome
Una buena traición de mujer
Que echa hielo y brasas en mi corazón
  SOL
Fumando en la oscuridad.

 
guitarra 1:
       DO                      LA              LA               LA            LA          SOL
e|-----------------|--|---------------|--|------------------|--------------|------------|-------|
B|-----------------|--|---------------|--|--------------7---|--------------|------------|-------|
G|---5-5--x-x------|x8|---------------|x3|----------7-5--(5)|--------------|------------|-------|
D|---5-5--x-x-5-x--|--|---------------|--|------------------|--------------|-------5-5--|(5)-555|
A|---3-3--x-x-3-x--|--|--5-/-7--7-7-x-|--|---5-/-7-7--------|-5-/-7--7-7-x-|-5-/-7-----7|(5)-555|
E|-----------------|--|--3-/-5--5-5-x-|--|---3-/-5-5--------|-3-/-5--5-5-x-|-3-/-5------|(3)-333|


VERSO 2: (igual al 1)

BAJO:
         DO              *        LA                  SOL
G|------------------|--|-----|------------------|--|----------------------|  
D|------------------|x8|-----|------------------|x7|----------------------|
A|--3-------------0-|--|-----|------------------|--|----------------------|
E|----5-3----3-5----|--|0-3-5|--5-3-0-(5)-3--03-|--|--3--3-3--333333------|  

  DO
Sobrio no te puedo ni hablar.
Estoy perdido sin mi estupidez.
         LA
Un auto guapo va a venir por vos
Y nada va a cambiar.
Vas a vivir en el delta en un lanchón
    SOL
Buscando de que reír.


ESTRIBILLO:

BAJO: 
    SIb     FA      DO      SIb     SOL    FA      DO       SIb    SOL
G|-------|-------|-------|-------|-------|-------|-------|-------|------------||  
D|-------|-------|-------|-------|-------|-------|-------|-------|------------||
A|-------|-------|(3)-3-3|(1)-1-1|-------|-------|(3)-3-3|(1)-1-1|------------||
E|(6)-6-6|(1)-1-1|-------|-------|(3)-3-3|(1)-1-1|-------|-------|3-3-3-3333--||

guitarra:  
G|-------|-------|-------|-------|-------|-------|-------|-------|-------||  
D|-------|-------|-------|-------|-------|-------|-------|-------|-------||
A|--SIb5-|-FA5---|-DO5---|-SIb5--|-SOL5--|--FA5--|--DO5--|--SIb5-|--SOL5-||
E|-------|-------|-------|-------|-------|-------|-------|-------|-------||


        SIb               FA
Con las piernas más bonitas.
         DO                SIb
Las más lindas piernas que vi.
      SOL             FA
Y un juego rico de amores.
  DO              SIb
Caída libre para dos.


SOLO DE GUITARRA Y DE SAXO:

BAJO:
         DO              *        LA                  DO                *       LA  
G|-----------------|--|-----|-----------------|--|----------------|--|-----|-----------------|--| 
D|-----------------|x2|-----|-----------------|x2|----------------|x2|-----|-----------------|x2|
A|--3------------0-|--|-----|-----------------|--|--3-----------0-|--|-----|-----------------|--|
E|----5-3---3-5----|--|0-3-5|--5-3-0-(5)-3--03|--|----5-3---3-5---|--|0-3-5|-5-3-0-(5)-3--03-|--|

     SOL                          FA
---------------------------|--------------------------||
---------------------------|--------------------------||
---------------------------|--------------------------||
-3-3-3-3-3-3--3-3-3-3-3-3--|-1-1-1-1-1-1--1-1-1-1-1-1-||

GUITARRA:                  
  DO            LA          DO               LA
e|-3-0-3-(0)-|-----------|-3-0-(3)-0-3-(0)-|-----------|
B|-----------|-5-3-5-----|-----------------|-5-3-5-----|
G|-----------|-------(2)-|-----------------|-------(2)-|
D|-----------|-----------|-----------------|-----------|
A|-----------|-----------|-----------------|-----------|
E|-----------|-----------|-----------------|-----------| 

guitarra  en el solo de saxo.
    SOl                        FA 
e|---------------------------|-----------------------------|
B|---------------------------|-----------------------------|
G|---------------------------|-----------------------------|  
D|-(5)-5-3--2-2-0------------|------------(3)--------------|
A|----------------3-----3-5--|-(3)---3--5------------------|
E|------------------3-5------|-----------------------------|   

VERSO 3

    DO
Le das la copa al fin al vencedor.
Tarea fina perdida en mi soledad.
        LA
No sé si no me gusta más que el rock,
Nunca la vi llorar.
Si no va sin freno no anda bien
    SOl
Ni me encadena a su show.

 REPITE ESTRIBILLO:

BAJO: 
    SIb     FA      DO      SIb     SOL    FA      DO       SIb    SOL
G|-------|-------|-------|-------|-------|-------|-------|-------|------------||  
D|-------|-------|-------|-------|-------|-------|-------|-------|------------||
A|-------|-------|(3)-3-3|(1)-1-1|-------|-------|(3)-3-3|(1)-1-1|------------||
E|(6)-6-6|(1)-1-1|-------|-------|(3)-3-3|(1)-1-1|-------|-------|3-3-3-3333--||

guitarra:  
G|-------|-------|-------|-------|-------|-------|-------|-------|-------||  
D|-------|-------|-------|-------|-------|-------|-------|-------|-------||
A|--SIb5-|-FA5---|-DO5---|-SIb5--|-SOL5--|--FA5--|--DO5--|--SIb5-|--SOL5-||
E|-------|-------|-------|-------|-------|-------|-------|-------|-------||


        SIb               FA
Con las piernas más bonitas.
         DO                SIb
Las más lindas piernas que vi.
      SOL             FA
Y un juego rico de amores.
  DO              SIb
Caída libre para dos.


SOLO DE ARMONICA FINAL.

BAJO:
        LA                         FA
G|-----------------------|--|-----------------|--|-------|  
D|-----------------------|x4|-----------------|x4|-------|
A|-----------------------|--|-----------------|--|-------|
E|-(5)-5-3-0--(1)-0-1-0--|--|--0--1--0--(3)---|--|-3-/-5-|  

guitarra:
      LA                         FA
G|-----------------------|--|-----------------|--|---------|  
D|-----------------------|x4|-----------------|x4|---------|
A|--7--7-5-----3---3-3-3-|--|-----3------5-5--|--|---LA----|
E|--5--5-3-0---1---1-1-1-|--|-----1--0---3-3--|--|---------|  


fin

            
            
Suggest correction
Creating personal tab
Creating personal tab
You can edit any tab online and save it as your Personal.

You can edit, replace or remove any tab part or add personal notes – all changes will be seen only by you.

Personal tabs can be accessed anytime from any device, even offline.
Learn more »
Give kudos to tab author, rate the tab!
1 2 3 4 5
comments
print report bad tab
guest
Wanna post a correction for this tab? Suggest correction