Oops, an error
Loading. Please wait.

Tarea Fina tab

version 4
version 4

Whole song

56 views 1 this week
no commentswrite comment
1 2 3 4 5
3 more votes to show rating
add to favorites
×
Save as Personal and add changes to this tab that will be seen only by you. Learn more ›
×
You can save this tab as Personal to edit and correct it or add notes. All changes will be seen only by you. Learn more »
launch autoscroll
font size
0
reset
how to read this tab
guitar tuner
edit
Autoscroll
slow
fast
+/-
esc
set tempo
stop
Intro:

E|----------------------------------------------------------|
B|----------------------------------------------------------|
G|----------------------------------------------------------|
D|--------3-5-------------------3-5-------------------------|
A|------5-----7-----7-5-3-----5----------5-5-7--------7-5-9-|
E|--5-7---------5-7--------5-7-------5-7---------5-7--------|

E|----------------------------------------------------------|
B|----------------------------------------------------------|
G|----------------------------------------------------------|
D|---------------------3-5----------------------------------|
A|------7-5-9-------5------7---Tokar un C-------------------|
E|--5-7---------5-7-----------------------------------------|

C                             Csus4 C  Csus4 arpegiar 3 6 y 5 Trastes
Quemando la turbina te escapás.              C tocar traste 5
C                             Csus4 C  Csus4 arpegiar 3 6 y 5 Trastes
¿Vas a volver a herirme otra vez?      C tocar traste 5 cuerdas E B G
 Am
En tu ternura está acechándome
                          B|-----1-3(5)3-1----
                          G|-1-2--------------
Una buena traición de mujer
           F
Que echa hielo y brasas en mi corazón
  G
Fumando en la oscuridad.

  C
Sobrio no te puedo ni hablar.
Estoy perdido sin mi estupidez.
          Am
Un auto guapo va a venir por vos
Y nada va a cambiar.
        F
Vas a vivir en el delta en un lanchón
    G
Buscando de que reír.

  Bb               F
Las piernas más bonitas.
         C                  Bb
Las más lindas piernas que vi.
       G              F
Y un juego rico de amores.
   C               Bb
Caída libre para dos.

Solo de Guitarra:

E|-----------------------------------------------------|
B|-----------------------------------------------------|
G|-12-10-12--9--9-7-9-----12-10-12--9-10-9--9-7-9--7---|
D|--------------------7--------------------------------|
A|-----------------------------------------------------|
E|-----------------------------------------------------|

   C
Le das la copa al fin al vencedor.
Tarea fina perdida en mi soledad.
         Am
No sé si no me gusta más que el rock,
Nunca la vi llorar.
            F
Si no va sin freno no anda bien
    G
Ni me encadena a su show.

  Bb               F
Las piernas más bonitas.
         C                  Bb
Las más lindas piernas que vi.
       G              F
Y un juego rico de amores.
   C               Bb
Caída libre para dos.
Suggest correction
Creating personal tab
Creating personal tab
You can edit any tab online and save it as your Personal.

You can edit, replace or remove any tab part or add personal notes – all changes will be seen only by you.

Personal tabs can be accessed anytime from any device, even offline.
Learn more »
Give kudos to tab author, rate the tab!
1 2 3 4 5
comments
print report bad tab
guest
Wanna post a correction for this tab? Suggest correction