Oops, an error
Loading. Please wait.

Toxi - Taxi tab

version 4
version 4

Whole song

47 views 1 this week
no commentswrite comment
1 2 3 4 5
3 more votes to show rating
add to favorites
×
Save as Personal and add changes to this tab that will be seen only by you. Learn more ›
×
You can save this tab as Personal to edit and correct it or add notes. All changes will be seen only by you. Learn more »
launch autoscroll
font size
0
reset
how to read this tab
guitar tuner
edit
Autoscroll
slow
fast
+/-
esc
set tempo
stop
intro:

guitarra:

    REm                 SOLm               LA7
E|---------------------|-------------------------------------|
B|---------------------|-------------------------------------|
G|-----------2-0-------|-------------------------------------|
D|-0--0--0-3-----3-(0)-|-0-2-3-2-3-2-3--(2)------------------|X1
A|---------------------|--------------------1-0-1-0-1--/---3-|
E|---------------------|-------------------------------------|

BAJO:

    REm                 SOL           LA7
G|-------------------|---------------------------------------|
D|-------------------|---------------------------------------|
A|--5---3--5---------|---------------------------------------|X1
E|----5------5-------|--3--3---0--3---5--5-------------------|

suigue asi..


guitarra:

    REm                 SOLm               LA7
E|---------------------|-------------------------------------|
B|---------------------|-------------------------------------|
G|-----------2-0-------|-------------------------------------|
D|-0--0--0-3-----3-(0)-|-0-2-3-2-3-2-3-(2)-------------------|X1
A|---------------------|------------------1-0-1-0-1-/-3-/(5)-|
E|---------------------|-------------------------------------|

BAJO:

    REm                 SOL           LA7
G|-------------------|---------------------------------------|
D|-------------------|---------------------------------------|
A|--5---3--5---------|---------------------------------------|X1
E|----5------5-------|--3--3---0--3---5--5-------------------|

VERSO 1:

REm            SOLm LA7 +(saxo)
Te tenemos allí
REm             SOLm LA7 + (saxo)
abandonado allí
REm
preso como un animal
SOLm
como un animal feroz
REm                          SOLm     LA7
así las cosas, la fiera más fiera ¿dónde está?

BAJO durante el verso 1:

    REm                 SOL           LA7
G|-------------------|---------------------------------------|
D|-------------------|---------------------------------------|
A|--5---3--5---------|---------------------------------------|X2
E|----5------5-------|--3--3---0--3---5--5-------------------|

guitarra durante el primer verso
    REm                     SOL        LA7
E|--5-5--5-5---5-5--5-5--|--3-3--3-3---5-5--5-5--------------------|
B|--6-6--6-6---6-6--6-6--|--3-3--3-3---5-5--5-5--------------------|
G|--7-7--7-7---7-7--7-7--|--3-3--3-3---5-5--5-5--------------------|
D|--7-7--------7-7-------|--5-5--------5-5-------------------------|X2
A|--5-5--------5-5-------|--5-5--------7-7-------------------------|
E|-----------------------|--3-3--------5-5-------------------------|

BAJO: Esta es la parte donde dice: Preso como un animal,etc.

    REm                 SOL
G|-------------------|---------------------------------------|
D|-------------------|---------------------------------------|
A|--5---3--5---------|---------------------------------------|X1
E|----5------5-------|--3--0--3--0--2--3--0--3---------------|

Sigue:

Bajo:

REm                 SOL           LA7
G|-------------------|---------------------------------------|
D|-------------------|---------------------------------------|
A|--5---3--5---------|---------------------------------------|X1
E|----5------5-------|--3--3---0--3---5--5-------------------|

Guitarra: Aca le Da como Reggae:

   REm            SOL
E|--5-5-5-5-----|--3-3-3-3-----|
B|--6-6-6-6-----|--3-3-3-3-----|
G|--7-7-7-7-----|--3-3-3-3-----|
D|--7-7-7-7-----|--5-5-5-5-----|X1
A|--5-5-5-5-----|--5-5-5-5-----|
E|--------------|--3-3-3-3-----|

Sigue:

 REm              SOL
E|--5-5-5-5-----|--3-3---5-5----|
B|--6-6-6-6-----|--3-3---5-5----|
G|--7-7-7-7-----|--3-3---5-5----|
D|--7-7-7-7-----|--5-5---5-5----|X1
A|--5-5-5-5-----|--5-5---7-7----|
E|--------------|--3-3---5-5----|

*SAXO (arregglo para guitarra)  solamente en las primeras 2 vueltas.
E|-------------------|---------------------------------------|
B|-------------------|---------------------------------------|
G|-------------------|---------------------------------------|
D|-------------------|-0-2-3-2-3-2-3--(2)--------------------|X2
A|-------------------|---------------------1-0-1-0-(1)-------|
E|-------------------|---------------------------------------|

INTERMEDIO:  (REPITE una parte del INTRO)

guitarra:
    REm                 SOLm               LA7
E|---------------------|-------------------------------------|
B|---------------------|-------------------------------------|
G|-----------2-0-------|-------------------------------------|
D|-0--0--0-3-----3-(0)-|-0-2-3-2-3-2-3-(2)-------------------|X1
A|---------------------|------------------1-0-1-0-1-/-3-/(5)-|
E|---------------------|-------------------------------------|

BAJO:

    REm                 SOL           LA7
G|-------------------|---------------------------------------|
D|-------------------|---------------------------------------|
A|--5---3--5---------|---------------------------------------|X1
E|----5------5-------|--3--3---0--3---5--5-------------------|

2 VERSO:

REm            SOLm     LA7 +(saxo)
El toxi-taxi viene y va
REm             SOLm   LA7  (arreglo 1)
y tu sombra va detrás
REm                       SOLm
de hordas de notables con los secretos para ser
REm                       SOLm      LA7
un negocio tan pequeño y simple como vos. (PUENTE)

Guitarra: (Arreglo 1)

E|--(13b)-13--13--13--13--(13b)--------------|
B|------------------------------(11b)~~~~~~--|
G|-------------------------------------------|
D|-------------------------------------------|
A|-------------------------------------------|
E|-------------------------------------------|

PUENTE:

BAJO: Esta es la parte donde dice: de hordas de notables,etc.

    REm                 SOL
G|-------------------|---------------------------------------|
D|-------------------|---------------------------------------|
A|--5---3--5---------|---------------------------------------|X1
E|----5------5-------|--3--0--3--0--2--3--0--3---------------|

Sigue:

Bajo:

REm                 SOL           LA7
G|-------------------|---------------------------------------|
D|-------------------|---------------------------------------|
A|--5---3--5---------|---------------------------------------|X1
E|----5------5-------|--3--3---0--3---5--5-------------------|

Guitarra: Aca le Da como Reggae:

   REm            SOL
E|--5-5-5-5-----|--3-3-3-3-----|
B|--6-6-6-6-----|--3-3-3-3-----|
G|--7-7-7-7-----|--3-3-3-3-----|
D|--7-7-7-7-----|--5-5-5-5-----|X1
A|--5-5-5-5-----|--5-5-5-5-----|
E|--------------|--3-3-3-3-----|

Sigue:

 REm              SOL
E|--5-5-5-5-----|--3-3---5-5----|
B|--6-6-6-6-----|--3-3---5-5----|
G|--7-7-7-7-----|--3-3---5-5----|
D|--7-7-7-7-----|--5-5---5-5----|X1
A|--5-5-5-5-----|--5-5---7-7----|
E|--------------|--3-3---5-5----|

guitarra (punteo)

G|17------17---------|---13------13-------------|
D|---15~-----15-~----|------11~------11-~-------|X1
A|-------------------|--------------------------|
E|-------------------|--------------------------|

y despues...

Bajo:

REm                 SOL           LA7
G|-------------------|---------------------------------------|
D|-------------------|---------------------------------------|
A|--5---3--5---------|---------------------------------------|X1
E|----5------5-------|--3--3---0--3---5--5-------------------|

guitarra: (punteo)

G|17------17---------|---13------13-/-(15b)-13----------|
D|---15~-----15------|------11-----------------16-(14b)~|X1
A|-------------------|----------------------------------|
E|-------------------|----------------------------------|

ESTRIBILLO:

DO5                  SIb5
Un toque por si las moscas van
DO5                  SIb5     + (ARREGLO 2)
y otro toque por si vas detrás
LA5                   SIb5
ya no hay tiempo de lamentos
DO5         engancha el Intro
ya no hay más.

guitarra:
E|---------|---------|--------|--------||
B|---------|---------|--------|--------||
G|---DO5---|---SIb5--|---DO5--|-SIb5---||x1
D|---------|---------|--------|--------||
A|---------|---------|--------|--------||
E|---------|---------|--------|--------||

 |------------------- ARREGLO 2 ----------------------|

E|---------------------------------------------------||
B|---------------------------------------------------||
G|---------------------------------------------------||
D|---------------------------------------------------||x1
A|4h5-55--4h5-55-4h5-55-(5)|4h5-55--4h5-55-4h5-55-(5)||
E|---------------------------------------------------||

Bajo:

    DO       SIb       DO        SIb
G|---------|---------|--------|--------||
D|---------|---------|--------|--------||
A|333333333|111111111|33333333|11111111||
E|---------|---------|--------|--------||

G|---------------------------------------------------||
D|---------------------------------------------------||x1
A|4h5-55--4h5-55-4h5-55-(5)|4h5-55--4h5-55-4h5-55--%-||
E|---------------------------------------------------||

despues...

guitarra:

E|---------|---------|--------|--------------------||
B|---------|---------|--------|--------------------||
G|---LA5---|---SIb5--|---DO5--|-engancha el intro-/||
D|---------|---------|--------|--------------------||
A|---------|---------|--------|--------------------||
E|---------|---------|--------|--------------------||

BAJO:

D|---------|---------|--------|--------------------||
A|---------|---------|--(3)---|-engancha el intro-/||
E|--(5)----|---(6)---|--------|--------------------||

REPITE INTRO:

guitarra:

    REm                 SOLm               LA7
E|---------------------|-------------------------------------|
B|---------------------|-------------------------------------|
G|-----------2-0-------|-------------------------------------|
D|-0--0--0-3-----3-(0)-|-0-2-3-2-3-2-3--(2)------------------|X1
A|---------------------|--------------------1-0-1-0-1--/---3-|
E|---------------------|-------------------------------------|

Bajo:

REm                 SOL           LA7
G|-------------------|---------------------------------------|
D|-------------------|---------------------------------------|
A|--5---3--5---------|---------------------------------------|X1
E|----5------5-------|--3--3---0--3---5--5-------------------|

suigue asi..

guitarra:

    REm                 SOLm               LA7
E|---------------------|-------------------------------------|
B|---------------------|-------------------------------------|
G|-----------2-0-------|-------------------------------------|
D|-0--0--0-3-----3-(0)-|-0-2-3-2-3-2-3-(2)-------------------|X1
A|---------------------|------------------1-0-1-0-1-/-3-/(5)-|
E|---------------------|-------------------------------------|

Bajo:

REm                 SOL           LA7
G|-------------------|---------------------------------------|
D|-------------------|---------------------------------------|
A|--5---3--5---------|---------------------------------------|X1
E|----5------5-------|--3--3---0--3---5--5-------------------|


VERSO 3: igual que los anteriores...

Un sueño con Luis María
muerto cuando me decía:
'cada día veo menos
cada día veo menos, creo, menos mal'.

INTERMEDIO:  (REPITE una parte del INTRO)

guitarra:

    REm                 SOLm               LA7
E|---------------------|-------------------------------------|
B|---------------------|-------------------------------------|
G|-----------2-0-------|-------------------------------------|
D|-0--0--0-3-----3-(0)-|-0-2-3-2-3-2-3-(2)-------------------|X1
A|---------------------|------------------1-0-1-0-1-/-3-/(5)-|
E|---------------------|-------------------------------------|

Bajo:

REm                 SOL           LA7
G|-------------------|---------------------------------------|
D|-------------------|---------------------------------------|
A|--5---3--5---------|---------------------------------------|X1
E|----5------5-------|--3--3---0--3---5--5-------------------|

REPITE ESTRIBILLO: (igual)

DO5                  SIb5
Un toque por si las moscas van
DO5                  SIb5     + (ARREGLO 2)
y otro toque por si vas detrás
LA5                   SIb5
ya no hay tiempo de lamentos
DO5         engancha el Intro
ya no hay más.

*REPITE INTRO*

VERSO 4: (igual que los anteriores)

 REm            SOLm LA7 +(saxo)
Te tenemos allí
REm             SOLm  LA7 + (saxo)
abandonado allí
REm
preso como un animal
SOLm
como un animal feroz
REm                          SOLm     LA7        INTERMEDIO.
así las cosas, la fiera más fiera ¿dónde está?

INTERMEDIO:  (REPITE una parte del INTRO)

guitarra:

    REm                 SOLm               LA7
E|---------------------|-------------------------------------|
B|---------------------|-------------------------------------|
G|-----------2-0-------|-------------------------------------|
D|-0--0--0-3-----3-(0)-|-0-2-3-2-3-2-3-(2)-------------------|X1
A|---------------------|------------------1-0-1-0-1-/-3-/(5)-|
E|---------------------|-------------------------------------|

Bajo:

REm                 SOL           LA7
G|-------------------|---------------------------------------|
D|-------------------|---------------------------------------|
A|--5---3--5---------|---------------------------------------|X1
E|----5------5-------|--3--3---0--3---5--5-------------------|

REPITE ESTRIBILLO: (igual)


DO5                  SIb5
Un toque por si las moscas van
DO5                  SIb5     + (ARREGLO 2)
y otro toque por si vas detrás
LA5                   SIb5
ya no hay tiempo de lamentos
DO5         engancha el Intro
ya no hay más.

SOLO DE GUITARRA:

BAJO :(DURANTE EL SOLO DE GUITARRA)

Bajo:

REm                 SOL           LA7
G|-------------------|---------------------------------------|
D|-------------------|---------------------------------------|
A|--5---3--5---------|---------------------------------------|X1
E|----5------5-------|--3--3---0--3---5--5-------------------|

**El Saxo hace como guitarra en la Intro...
Guitarra solo: (wah wah)

E|--------------------------10b~--10b~--10b~------|
B|---10b~--10b~----8--(10)--10b~--10b~--10b~------|
G|---------------9--------------------------------|
D|------------------------------------------------|
A|------------------------------------------------|
E|------------------------------------------------|

eso es lo que va haciendo la viola al final!

                   ***NOE TE AMO***

Bueno ahi estan los riffs de las guitarras perfectos...son muy faciles
                          SaLudos!
*********************************************************************

            
            
Suggest correction
Creating personal tab
Creating personal tab
You can edit any tab online and save it as your Personal.

You can edit, replace or remove any tab part or add personal notes – all changes will be seen only by you.

Personal tabs can be accessed anytime from any device, even offline.
Learn more »
Give kudos to tab author, rate the tab!
1 2 3 4 5
comments
print report bad tab
guest
Wanna post a correction for this tab? Suggest correction