Oops, an error
Loading. Please wait.

Un Angel Para Tu Soledad tab

version 1
version 1

Whole song

190 views 3 this week
no commentswrite comment
1 2 3 4 5
3 more votes to show rating
add to favorites
×
Save as Personal and add changes to this tab that will be seen only by you. Learn more ›
×
You can save this tab as Personal to edit and correct it or add notes. All changes will be seen only by you. Learn more »
launch autoscroll
font size
0
reset
how to read this tab
guitar tuner
edit
Autoscroll
slow
fast
+/-
esc
set tempo
stop
INTRO:
e ----------------
b ----------------
g ----------------
d --7-7-7-7-5-4---
a --5-5-5-------5-
E ----------------

e -------------------
b -------------------
g -------------------
d --5--5-5-----------
a --5--5-5-----2-3-5-
E --3--3-3-3-5-------

REPITE 4 VECES Y LUEGO CAE A

LAM - SOLM - FA#m - MIM (REPITE 4 VECES)


RE                SOL 
Ya sufriste cosas mejores que éstas
RE                          SOL 
y vas a andar ésta ruta, hoy, cuando anochezca.
RE 
tu esqueleto te trajo hasta aquí
SOL 
con un cuerpo hambriento, veloz.
RE 
y aquí, gracias a dios!
SOL 
uno no cree en lo que oye.

LA   SOL   FA#m  MI 
Ángel de la soledad
y de la desolación,
preso de tu ilusión vas a bailar,
a bailar...bailar.

RE 
Es tan simple así
SOL 
(no podés elegir)
RE                           SOL 
claro que no siempre, ¿ves? resulta bien

LA          SIm         SOL        RE 
atado con doble cordel (el de simular)
SIm         LA             SOL        LA 
no querés girar maniatado, querés faulear...
LA 
y arremolinar.

e -----------
b -----------
g -----------
d -----------
a ----5------
E --5---5/0--

e -----------
b -----------
g -----------
d -----------
a ----3------
E --3---3/0--

REPITE 2 VECES

LA        SIm                 SOL 
medís tu acrobacia y saltás.
            RE  SIm           LA 
tu secreto es: -la suerte del principiante
SOL           LA 
no puede fallar-

e --------------------------------
b --------------------------------
g ----------------2/4-4/6-6/7-7/9-
d ------------2-4-----------------
a ------2-4-5---------------------
E --3-5---------------------------

RE                 SOL 
Alguna vez, quizá, se te va la mano
RE                 SOL 
y las llamas en pena invaden tu cuerpo
RE                 SOL 
y caés en manos del ángel de la soledad
RE 
y él, gracias a dios!
       SOL 
tampoco cree en lo que oye.

LA   SOL   FA#m  MI 
Ángel de la soledad
y de la desolación
preso de tu ilusión vas a bailar,
a bailar...bailar.

RE 
SOL 
Por mis penas bailá

RE 
SOL 
y por tu soledad.

e ----------------
b ----------------
g ----------------
d ----------2-----
a ------2-4---4-5-
E --3-5-----------


BUENO GENTE, ESPERO QUE LES GUSTE, LOS ARREGLITOS SON DE LA PRIMERA GUITARRA
PERO ME PARECIÓ INTERESANTE COLOCARLOS PARA QUE LA MÚSICA NO PIERDA IDENTIDAD.

SALUDOS Y DISFRUTEN!!

JUAN MARTIN GOYEN
Suggest correction
Creating personal tab
Creating personal tab
You can edit any tab online and save it as your Personal.

You can edit, replace or remove any tab part or add personal notes – all changes will be seen only by you.

Personal tabs can be accessed anytime from any device, even offline.
Learn more »
Give kudos to tab author, rate the tab!
1 2 3 4 5
comments
print report bad tab
guest
Wanna post a correction for this tab? Suggest correction