Oops, an error
Loading. Please wait.

Mon Amant De Saint-Jean Chords

version 1
version 1

Whole song

Interactive

8,349 views 48 this week
no commentswrite comment
1 2 3 4 5
worth learning
x 5
add to favorites
launch autoscroll
font size
0
reset
transpose
0
reset
simplify chords
display chords
guitar tuner
Autoscroll
slow
fast
+/-
esc
set tempo
stop
Help us to improve Ultimate-Guitar.com Take our survey!
×
Author
Capo
2nd fret
-------------------------------------------------------------------------------
               MON AMANT DE SAINT JEAN - Patrick Bruel
-------------------------------------------------------------------------------
Tabbed by: Meggane GRAND 

Capo 2

Tuning:

Verse :
          Em               Am              B7              Em
e|----------------------------------------------------------------------------------|
B|----0-0-----0-0------1-1-----1-1------0-0-----0-0------0-0-----0-0----------------|
G|----0-0-----0-0------2-2-----2-2------2-2-----2-2------0-0-----0-0----------------|
D|----2-2-----2-2------2-2-----2-2------1-1-----1-1------2-2-----2-2----------------|    
A|-------------------0-------0--------2-------2-------------------------------------|
E|-0-------0-------------------------------------------0-------0--------------------|


Chorus :

          Em               Am              B7                G
e|----------------------------------------------------------------------------------|
B|----0-0-----0-0------1-1-----3-3------0-0-----0-0------0-0-----0-0----------------|
G|----0-0-----0-0------2-2-----2-2------2-2-----2-2------0-0-----0-0----------------|
D|----2-2-----2-2------2-2-----2-2------1-1-----1-1------0-0-----0-0----------------|    
A|-------------------0-------0--------2-------2-------------------------------------|
E|-0-------0-------------------------------------------1-------1--------------------|

          Em               Am              B7              Em
e|----------------------------------------------------------------------------------|
B|----0-0-----0-0------1-1-----1-1------0-0-----0-0------0-0-----0-0----------------|
G|----0-0-----0-0------2-2-----2-2------2-2-----2-2------0-0-----0-0----------------|
D|----2-2-----2-2------2-2-----2-2------1-1-----1-1------2-2-----2-2----------------|    
A|-------------------0-------0--------2-------2-------------------------------------|
E|-0-------0-------------------------------------------0-------0--------------------|


- Verse 1 : 
       Em                          Am
Je ne sais pourquoi elle allait danser
         B7          Em
à Saint Jean au musette
           Em                      Am
mais quand ce gars lui a pris un baiser
            B7              Em
elle frissonnait, était chipée


- Pre-Chorus : Em - Am - B7 - Em

Comment ne pas perdre la tête
serré par des bras audacieux
car l'on croit toujours
aux doux mots d'amour
quand ils sont dits avec les yeux

- Chorus : 
Em                 Am
Elle qui l'aimait tant
             B7                         G
elle le trouvait le plus beau de Saint Jean
Em              Am
elle restait grisée
          B7
sans volonté
            Em
sous ses baisers


- Verse 2 : Em - Am - B7 - Em

Sans plus réfléchir, elle lui donnait
le meilleur de son être
beau parleur chaque fois
qu'il mentait
elle le savait, mais elle l'aimait

- Pre-Chorus : Em - Am - B7 - Em

Comment ne pas perdre la tête
serré par des bras audacieux
car l'on croit toujours
aux doux mots d'amour
quand ils sont dits avec les yeux

- Chorus : Em - Am - B7 - G - Em - Am - B7 - Em

Elle qui l'aimait tant
elle le trouvait le plus beau
de Saint Jean
elle restait grisée
sans volonté
sous ses baisers
Mais hélas,
à Saint Jean comme ailleurs
un serment n'est qu'un leurre
elle était folle de croire au bonheur
et de vouloir garder son cœur

- Pre-Chorus : Em - Am - B7 - Em

Comment ne pas perdre la tête
serré par des bras audacieux
car l'on croit toujours
aux doux mots d'amour
quand ils sont dits avec les yeux

- Chorus :  Em - Am - B7 - G - Em - Am - B7 - Em

Elle qui l'aimait tant,
elle le trouvait
le plus beau de Saint Jean,
elle restait grisée
sans volonté
sous ses baisers
Elle qui l'aimait tant...
Il ne l'aime plus
c'est du passé
n'en parlons plus
Suggest correction
comments
print report bad tab
guest
You may want to rate the tab now too:
select rating
Please do not post tabs as comments. Select "correction" instead!