Oops, an error
Loading. Please wait.

Do You Wanna Funk bass

1,123 views 3 this week
no commentswrite comment
1 2 3 4 5
3 more votes to show rating
add to favorites
×
Save as Personal and add changes to this tab that will be seen only by you. Learn more ›
×
You can save this tab as Personal to edit and correct it or add notes. All changes will be seen only by you. Learn more »
launch autoscroll
font size
0
reset
guitar tuner
edit
Autoscroll
slow
fast
+/-
esc
set tempo
stop
Author
Patrick Cowley featuring Sylvester - Do You Wanna Funk (1982)


Transcribed by ear


Intro (Synth)

G---------------------------------------------------------------------|
D---------------------------------------------------------------------|
A---------------------------------------------------------------------|   x4
E--66666-46-99--66666-46--66666-46-99--66666-46-----------------------|

Verse

G----------------------------------------------------------------------|
D----------------------------------------------------------------------|
A----------------------------------------------------------------------|
E--6-666-6-6-6-6-6-6-666-6-6-6-6-6-9-999-9-9-9-9-9-9-999-9-9-9-9-9-4-4-|

G---------------------------------------------------------------------|    x2
D---------------------------------------------------------------------|
A---------------------------------------------------------------------|
E44-4-4-4-4-4-4-444-4-4-4-4-4-----------------------------------------|

Refrain

G---------------------------------------------------------------------|
D---------------------------------------------------------------------|
A---------------------------------------------------------------------|
E--9-9-6-4-6--66666-46---4/6-6-9-9-6----------------------------------|

There is something
I wanna ask you
There is something
That I want to know
And to this question
You have the answer
So tell me
What I want to know

Do you wanna funk?
Wont you tell me now?
If you wanna funk
Let me show you how
Do you wanna funk with me?
Do you wanna funk with me?

So if I tell you
That you're really something, baby
Will you stay
Or will you go away
And when I lay my
Good lovin on ya
What will it cost me, baby
What will you make me pay

Do you wanna funk?
Wont you tell me now?
If you wanna funk
Let me show you how
Do you wanna funk with me?
Do you wanna funk with me?

Yeah let me show ya how yeah
(Get down on the floor)
Like this!
(Get down on the floor)
Do you wanna funk?
Wont you tell me now?
If you wanna funk
Let me show you how
Do you wanna funk with me?
Do you wanna funk with me?

            
            
Suggest correction
Creating personal tab
Creating personal tab
You can edit any tab online and save it as your Personal.

You can edit, replace or remove any tab part or add personal notes – all changes will be seen only by you.

Personal tabs can be accessed anytime from any device, even offline.
Learn more »
Give kudos to tab author, rate the tab!
1 2 3 4 5
comments
print report bad tab
guest
You may want to rate the tab now too:
select rating
Wanna post a correction for this tab? Suggest correction