Oops, an error
Loading. Please wait.

Si Tu Revenais Tab

2,327 views 6 this week
no commentswrite comment
1 2 3 4 5
please rate
add to favorites
launch autoscroll
font size
0
reset
how to read this tab
guitar tuner
Autoscroll
slow
fast
+/-
esc
set tempo
stop
Help us to improve Ultimate-Guitar.com Take our survey!
×
Contributor
Kengus 13,009
-------------------------------------------------------------------------
SI TU REVENAIS (Version 2007) – Patrick Fiori
-------------------------------------------------------------------------
Tabbed by: Kengus

Standard tuning

INTRO...VERSE1
   Em   Em        EmM7/D#   E7sus2/D  Em6/C#    Am            Em
e|-0----------0---------0---------0---------0-----------0-----------0----|
B|-0------------0-----0---0-----0---0-----0---0-----0h1---1-----------0--|
G|-0--------0-------0---------------------------------------2-----0------|
D|-2--------------------------4---------2---------2-------------2--------|
A|-2------2-------6---------5---------4---------0------------------------|
E|-0----0-----------------------------------------------------0----------|
   A#dim7    B7         Em        EmM7/D#   E7sus2/D  Em6/C#    Am
e|-------0---------2----------0---------0---------0---------0------------|
B|-----2-------------0----------0-----0---0-----0---0-----0---0-----0h1--|
G|---------0-----2----------0-------0------------------------------------|
D|---2---------1------------------------------4---------2---------2------|
A|-1---------2------------2-------6---------5---------4---------0--------|
E|----------------------0------------------------------------------------|
         Em        A#dim7    B7
e|-0-----------0---------0---------2----|
B|---1-----------0-----2-------------0--|
G|-----2-----0-------------0-----2------|
D|---------2---------2---------1--------|
A|-----------------1---------2----------|
E|-------0------------------------------|

VERSE1
Em            EmM7/D#            E7sus2/D        Em6/C#
   Y en a plein les chansons plein les romans de gare
    Am              Em       A#dim7          B7
Y en a plein les scénars, des histoires comme notre histoire
Em             EmM7/D#      E7sus2/D      Em6/C#
   Un homme aime une femme et finit par y croire
      Am                Em      A#dim7           B7
Passe un autre et tout passe, et que veux-tu qu'on y fasse

PRE-CHORUS
   Am                          Emadd9    Em     D  C                 Em/B
e|---------0-------------0---------2-----3------2--------0---------0-----|
B|-----0h1---1-------0h1---1-----0---0-----0----3------1---1-----1-------|
G|-------------2-------------2---------0-----0--2----0---------0-------0-|
D|---2-------------2----------------------------0------------------------|
A|-0-------------0---------------------------------3---------3-------2---|
E|-----------------------------0-----------------------------------------|
       Am             D                Am                          Emadd9
e|---0---------0------------0-0h2--------------0-------------0---------2-|
B|-0-------0h1---1--------3-------3--------0h1---1-------0h2---1-----0---|
G|-----------------2----2-----------2--------------2-------------2-------|
D|-------2------------0------------------2-------------2-----------------|
A|-----0-------------------------------0-------------0-------------------|
E|-----------------------------------------------------------------0-----|
       Em     D  C                   Em/B                A#dim7
e|-----3------2--------0---------0---------0---------0---------0---------|
B|-0-----0----3------1---1-----1---1-----0---0-----0---0-----2---2-----2-|
G|---0-----0--2----0---------0---------0---------0---------0---------0---|
D|------------0----------------------------------------------------------|
A|---------------3---------3---------2---------2---------1---------1-----|
E|-----------------------------------------------------------------------|
       B7         D
e|-0---------2----2--|
B|---2-----0---0--3--|
G|-------2--------2--|
D|----------------0--|
A|-----2-------------|
E|-------------------|

PRE-CHORUS
Am                                Emadd9          Em  D
   Je vais pas faire de vagues oh n'aies pas peur
      C                         Em/B      Am              D
C'est pas le genre de la maison c'est pas le genre de mon cœur
Am                            Emadd9       Em  D
   On fera pas les pages des faits divers
C                Em/B             A#dim7                   B7
Etre raisonnable,   je sais faire,    y aura pas de combat,  de guerre
 D          G...
(Mais si jamais...

CHORUS
   G         G/B       Em        C     G*/B  Am            B7        Emadd2
e|-------3---------3---------0-----------------------0-----------2-------|
B|---------0---------0-----0---0---1-----1-------0h1---1-----------0-----|
G|-----0---------0-------0-----------0-----0-------------2-----2---------|
D|---0---------0-------------------------------2-------------1-----------|
A|-----------2-------------------3-----2-----0-------------2-----------2-|
E|-3-------------------0---------------------------------------------0---|
                       Em                  C         C     G*/B  Am
e|---------------------------0---------0---------0-----------------------|
B|-------------------------0---0-----0---0-----1---1---1-----1-------0h1-|
G|-----0-----------0-----0---------0---------0-----------0-----0---------|
D|-4-----4-----4-----4---------------------------------------------2-----|
A|---2-------2---2-------------------------3---------3-----2-----0-------|
E|---------0-----------0---------0---------------------------------------|
         B7        Em        C     G*/B  Am            B7        Emadd2
e|-0-----------2---------0-----------------------0-----------2-----------|
B|---1-----------0-----0---0---1-----1-------0h1---1-----------0---------|
G|-----2-----2-------0-----------0-----0-------------2-----2-------------|
D|---------1-------------------------------2-------------1-----------4---|
A|-------2-------------------3-----2-----0-------------2-----------2---2-|
E|-----------------0---------------------------------------------0-------|

e|------------------|
B|------------------|
G|-0-----------0----|
D|---4-----4-----4--|
A|-------2---2------|
E|-----0------------|

CHORUS
(D)         G   G/B       Em    C  G*/B
 Mais si jamais,    si tu revenais
Am           B7                Emadd2
   Dis rien, laisse à l'entrée  les mots
          Em          C      C  G*/B
On sait jamais, si tu revenais
Am             B7              Em           C  G*/B
   C'est comme si l'on ouvrait tous mes volets
Am           B7      Emadd2
   Le soleil aussi reviendrait

VERSE2 (play like verse1)
Il faut tout prendre vivre, tout ce qu'on doit vivre
On ne peut rien construire, sur des regrets, des soupirs
Faudra qu'il t'aime autant que moi, pas si facile
Y a pas d'amour immobile, le temps dévore, il abîme

PRE-CHORUS (play like before)
Pour mieux voir il faut parfois des distances
Je te souhaite heureuse en tout cas, c'est la seule évidence
Peut-être même que c'est mieux comme ça
Une autre me plaira, on sait pas
Et qui vivra verra sans toi

CHORUS (play like before)
Mais si jamais, si tu revenais
Dis rien, laisse à l'entrée les mots
On sait jamais, si tu revenais
C'est comme si l'on ouvrait tous mes volets
Le soleil aussi reviendrait

OUTRO
  Am            B7        Em        C     G*/B  Am            B7       Em
e|--------0-----------2---------0-----------------------0-----------2--0|
B|----0h1---1-----------0---------0---1-----1-------0h1---1---------0--0|
G|------------2-----2---------0---------0-----0-------------2-----2-2--0|
D|--2-------------1---------2---------------------2-------------1---1--2|
A|0-------------2-------------------3-----2-----0-------------2-----2--2|
E|------------------------0--------------------------------------------0|

OUTRO
Am              B7             Em           C  G*/B
   C'est comme si l'on ouvrait tous mes volets
Am            B7        Em
   Le soleil aussi reviendrait.

=========================================================================
Comment, rate, appreciate!
comments
We did not receive enough feedback on this tab! Please rate:
print report bad tab
1 2 3 4 5
I want to post or [tab]
guest
You may want to rate the tab now too:
select rating
Please do not post tabs as comments. Select "correction" instead!