Oops, an error
Loading. Please wait.

Born To Be Alive bass

version 1
version 1

Whole song

Interactive

4,479 views 3 this week
1 commentread comment
1 2 3 4 5
x 5
add to favorites
×
Save as Personal and add changes to this tab that will be seen only by you. Learn more ›
×
You can save this tab as Personal to edit and correct it or add notes. All changes will be seen only by you. Learn more »
launch autoscroll
font size
0
reset
guitar tuner
edit
Autoscroll
slow
fast
+/-
esc
set tempo
stop
Author
Difficulty
-----------------------------------------------------------------------------
                             Born To Be Alive - Patrick Hernandez
-----------------------------------------------------------------------------
Tabbed by: paul
E-mail: stashj8@yahoo.com

Tuning: standard

Don't really like the guitar pro version, so hopefully this is easier..And yes you
should be slapping throughout the entire song ;/

intro - only time you'll play this part (0:00-0-15)
Play this 32 times.

G|--2-----------------------------------------------------------------|
D|--------------------------------------------------------------------|
A|0-------------------------------------------------------------------|
E|--------------------------------------------------------------------|

(0:16-0:23) - play twice.
G|-7-7-7-7---5-5------------------------------------------------------|
D|-----------------5-5------------------------------------------------|
A|5-5-5-5---3-3-------------------------------------------------------|
E|----------------3-3-------------------------------------------------|

(0:24-0:38..I'll refer to this again..it's the 'chorus'.

G|-4-4-4-4--5-5--4-5--7-7-7-7-7-7-7-7---------------------------------|
D|--------------------------------------------------------------------|
A|2-2-2-2--3-3--2-3--5-5-5-5-5-5-5-5----------------------------------|
E|--------------------------------------------------------------------|

G|-4-4-4-4--2-2-2-2--------------------------------------------------|
D|--------------------5-5-5-5-5-5-5-5--------------------------------|
A|2-2-2-2--0-0-0-0---------------------------------------------------|
E|-------------------3-3-3-3-3-3-3-3---------------------------------|

After the chorus you just play this...(0:38-0:41)
G|-7-7-7-7-7-7-7-7---------------------------------------------------|
D|-------------------------------------------------------------------|
A|5-5-5-5-5-5-5-5----------------------------------------------------|
E|-------------------------------------------------------------------|


Ok - the verses. (0:41-0:55)
G|-7-7-7-7------------7-7-7-7--5-5------------------------------------|
D|----------5-5-5-5-----------------5-5-------------------------------|
A|5-5-5-5------------5-5-5-5--3-3-------------------------------------|
E|---------3-3-3-3-----------------3-3--------------------------------|

G|-7-7-7-7------------7-7-7-7-7-7-7-7--------------------------------|
D|----------5-5-5-5--------------------------------------------------|
A|5-5-5-5------------5-5-5-5-5-5-5-5---------------------------------|
E|---------3-3-3-3---------------------------------------------------|

After this there's another chorus (0:56-1:10) But this time instead of
playing the D at the end of the chorus, you alternate between B and G,
like this > (1:10-1:24) This is played twice.

G|-4-4-4-4-4-4-4-4----------------------------------------------------|
D|-------------------5-5-5-5-5-5-5-5----------------------------------|
A|2-2-2-2-2-2-2-2-----------------------------------------------------|
E|------------------3-3-3-3-3-3-3-3-----------------------------------|

At the (1:25) mark I believe a F# is played...
G|--------------------------------------------------------------------|
D|-4-4-4-4-4-4-4-4----------------------------------------------------|
A|--------------------------------------------------------------------|
E|2-2-2-2-2-2-2-2-----------------------------------------------------|

(1:29-1:36)
G|-7-7-7-7-7-7-7-7-7-7-7-7-7-7-7-7-------------------------|
D|---------------------------------------------------------|
A|5-5-5-5-5-5-5-5-5-5-5-5-5-5-5-5--------------------------|
E|---------------------------------------------------------|

Ok - now the verses again, the (0:41-0:55) part, and the choruses repeat
until the end of the song! Happy playing!

Oh, at (2:33) and (2:55) there is a second rest.


| /  slide uP
| \  slide down
| h  hammer-on
| p  pull-off
| ~  vibrato
| +  harmonic
| x  Mute note
===============================================================================
Suggest correction
Creating personal tab
Creating personal tab
You can edit any tab online and save it as your Personal.

You can edit, replace or remove any tab part or add personal notes – all changes will be seen only by you.

Personal tabs can be accessed anytime from any device, even offline.
Learn more »
comments
print report bad tab
1 comment total.
0 reply
tenam86 597 Mar 25, 2015 04:16 AM

Great tab but no slap required. Ottimo tabulato ma non è necessario lo slap

guest
You may want to rate the tab now too:
select rating
Wanna post a correction for this tab? Suggest correction