Oops, an error
Loading. Please wait.

Golden Sun tab

1,597 views 1 this week
4 commentsread comments
1 2 3 4 5
x 4
add to favorites
×
Save as Personal and add changes to this tab that will be seen only by you. Learn more ›
×
You can save this tab as Personal to edit and correct it or add notes. All changes will be seen only by you. Learn more »
launch autoscroll
font size
0
reset
how to read this tab
guitar tuner
edit
Autoscroll
slow
fast
+/-
esc
set tempo
stop
First TAB I'm pretty sure its all correct. So Enjoy!!

Standard Tuning
CAPO 3

INTRO + VERSE 1 (TAB)

e|------------------------0-----------------------0----------3---------------|
B|------------------------0-----------------------1----------0---------------|
G|---2/4---2p0------------0-----0---------0-------0----------0---------------|
D|---------------2--------2-------------0----0----2----------0---------------|
A|------------------------2--------0h2------------3----------2---------------|
E|-------------------0----0-----------------------------3--------------------|

Repeat as necessary for intro and verse 1

VERSE 1 (Lyrics)

Dark water rises
In the seas I swim in
I feel I'm sinking
As the Earth is breaking
I never noticed
How far we have come
Just one more stop
To find your Golden Sun

CHORUS

G                 C    
I've been through money
G                  C               
It's come and it's gone
G                C                   D  C
But we never strayed to far from the cold
G             C
To find your freedom
G        C
Life goes on
G                     C
To watch our children grow
           D  C
And they'll follow

Em C G  x2

VERSE 2

           Em
I never wrote to
          C G
Dead ones I knew
                 Em
They seemed so distant
            C    G
That I was scared to
            Em
But we'd remember
                   C   G
All the times that we shared
           Em
And I can tell you 
              C     G
That I learnt first hand 


CHORUS

G                 C    
I've been through money
G                  C               
It's come and it's gone
G                 C                  D C
But we never strayed to far from the cold
G             C
To find your freedom
G        C
Life goes on
G                     C
To watch our children grow
           D  C
And they'll follow

SOLO

Em C G

Play those chords as if it was a verse


BRIDGE

Am                        Em
Time don't want to make us change

e|-------------------|
B|-------------------|
G|-------------------|
D|--2---0------------|
A|----------3---2----|
E|-------------------|

Am                         D
Time don't want to make us change

e|------------|
B|------------|
G|---2p0------|
D|------------|
A|------------|
E|------------|

C
Change...


FINAL CHORUS

G                 C    
I've been through money
G                  C               
It's come and it's gone
G                 C                  D C
But we never strayed to far from the cold
G             C
To find your freedom
       Em        C
Oh oh, Life goes on
G                     C
To watch our children grow
           D  C
And they'll follow
D C
Follow
D C
Follow


FINAL RIFF

e|------------------------0---|
B|------------------------0---|
G|---2/4---2p0------------0---|
D|---------------2--------2---|
A|------------------------2---|
E|-------------------0----0---|
Suggest correction
Creating personal tab
Creating personal tab
You can edit any tab online and save it as your Personal.

You can edit, replace or remove any tab part or add personal notes – all changes will be seen only by you.

Personal tabs can be accessed anytime from any device, even offline.
Learn more »
comments
print report bad tab
4 comments total. Showing first comments.
0 reply
jack_erbacher 33 Feb 14, 2014 02:33 PM

The chorus line has a typo. It should say

G C D
We never strayed to far from the cold

Also during the final chorus it should say

G C
To find your freedom
Em C
Oh oh life goes on

0 reply
mattyrat 10 May 14, 2014 11:00 PM

Great work but cant see the first verse

0 reply
mattyrat 10 May 14, 2014 11:05 PM

Verse 1

Dark water rises
In the seas I swim in
I feel I'm sinking
As the Earth is breaking
I never noticed
How far we have come
Just one more stop
To find your Golden Sun

guest
You may want to rate the tab now too:
select rating
Wanna post a correction for this tab? Suggest correction