Oops, an error
Loading. Please wait.

Watching Over You Tab

493 views 1 this week
no commentswrite comment
1 2 3 4 5
1 last vote to show rating
add to favorites
launch autoscroll
font size
0
reset
how to read this tab
guitar tuner
Autoscroll
slow
fast
+/-
esc
set tempo
stop
Help us to improve Ultimate-Guitar.com Take our survey!
×
Author
Difficulty
novice
WATCHING OVER YOU
PATRICK NUO
Tabbed by Athan(www.athanhilaki.com/info@athanhilaki.com)

tuning standard

Intro / Verse Riff
|---------------------|
|---------------------|
|----7----9-7---------|         (repeat)
|--7--(7)-----10-7----|
|---------------------|
|---------------------|

Intro 2nd guitar (listen to the song for bend and tap)
|---------------------------10-12-10-12--15------12------|
|--13-10----13-10-13-10--13-----------------10------8----|
|--------------------------------------------------------|
|--------------------------------------------------------|
|--------------------------------------------------------|
|--------------------------------------------------------|

Keyboard riff arranged for guitar (during end of verse)
----------------------------------|
----------------------------------|
----------------------------------|
-------7-9-10-9--7-9-10-9---------|
----------------------------------|
----------------------------------|
...seek
...need
...road
...load
Suggest correction
Give kudos to tab author, rate the tab!
1 2 3 4 5
comments
print report bad tab
guest
You may want to rate the tab now too:
select rating
Wanna post a correction for this tab? Suggest correction