Oops, an error
Loading. Please wait.

Vivaldi Tribute Tab

version 1
version 1

Whole song

23,140 views 42 this week
3 commentsread comments
1 2 3 4 5
x 4
add to favorites
launch autoscroll
font size
0
reset
how to read this tab
guitar tuner
×
Best way to learn
"Vivaldi Tribute"
Autoscroll
slow
fast
+/-
esc
set tempo
stop
Author/Artist: patrick rondat
Title: vivaldi tribute
Album: amphibia

e|---------------------------------------------------------------------------|
B|---------------------------------------------------------------------------|
G|-19-17-15------------------------------------------------------------------|
D|-----------19--17--15------------------------------------------------------|
A|-----------------------18-17-15--------------------------------------------|
E|---------------------------------15-15-15-15-15-15-15-15-15-15-15-15-------|

e|---------------------------------------------------------------------------|
B|-20-18-16------------------------------------------------------------------|
G|----------19-17-15---------------------------------------------------------|
D|-------------------19-17-15------------------------------------------------|
A|----------------------------15-15-15-15-15-15-15-15-15-15-15-15-15---------|
E|---------------------------------------------------------------------------|

e|-18-17-15------------------------------------------------------------------|
B|----------18-16-15---------------------------------------------------------|
G|-------------------17-15-14------------------------------------------------|
D|----------------------------13-13-13-13-13-13-13-13-13-13-13-13------------|
A|---------------------------------------------------------------------------|
E|---------------------------------------------------------------------------|

e|-22-20-18------------------------------------------------------------------|
B|----------22-20-18---------------------------------------------------------|
G|-------------------20-19-17------------------------------------------------|
D|----------------------------17-17-17-17-17-17-17-17-17-17-17-17------------|
A|---------------------------------------------------------------------------|
E|---------------------------------------------------------------------------|

e|-22-20-18------------------------------------------------------------------|
B|----------22-20-18---------------------------------------------------------|
G|-------------------20-19-17------------------------------------------------|
D|----------------------------17-17-17-17-17-17-17-17-17-17-17-17------------|
A|---------------------------------------------------------------------------|
E|---------------------------------------------------------------------------|

e|-------------------------|--------------------|--------------------|--------|
B|-------------------------|--------------------|-----------------10-|--------|
G|-19-------19-------19----|-----------------12-|--------------------|--------|
D|----17-17----17-17----17-|---------8-10-12----|---------8-10-12----|--------|
A|-------------------------|-8-10-12------------|-8-10-12------------|--------|
E|-------------------------|--------------------|--------------------|--------|

e|--------------------|-----------------10-|-----------------10-|-------------|
B|-----------------11-|--------------------|--------------------|-------------|
G|--------------------|--------------------|--------------------|-------------|
D|---------8-10-12----|---------8-10-12----|---------8-10-12----|-------------|
A|-8-10-12------------|-8-10-12------------|-8-10-12------------|-------------|
E|--------------------|--------------------|--------------------|-------------|

e|--------------------|--------------------|-----------------10-|-------------|
B|-----------------11-|-----------------10-|--------------------|-------------|
G|--------------------|--------------------|--------------------|-------------|
D|---------8-10-12----|---------8-10-12----|---------8-10-12----|-------------|
A|-8-10-12------------|-8-10-12------------|-8-10-12------------|-------------|
E|--------------------|--------------------|--------------------|-------------|
                                                     play 3 times

e|-18-t-15---------18-t-15---------18-t-15---------|-15-t-10---------|--------|
B|-------------------------------------------------|-----------------|--------|
G|---------19-t-15---------19-t-15---------19-t-15-|---------15-t-12-|--------|
D|-------------------------------------------------|-----------------|--------|
A|-------------------------------------------------|-----------------|--------|
E|-------------------------------------------------|-----------------|--------|
   play 3 times

e|-10-t-6--------|-------------------------------------------------|----------|
B|---------------|-------------------------------------------------|----------|
G|--------12-t-7-|-4p0-4p0-4p0-4p0-4p0-4p0-4p0-4p0-4p0-4p0-4p0-4p0-|----------|
D|---------------|-------------------------------------------------|----------|
A|---------------|-------------------------------------------------|----------|
E|---------------|-------------------------------------------------|----------|

e|---------------------------------------------|-------------------------------|
B|---------------------------------------------|-------------------------------|
G|-5p0-5p0-5p0-5p0-5p0-5p0-5p0-5p0-5p0-5p0-5p0-|-6p0-6p0-6p0-6p0-6p0-6p0-6p0---|
D|---------------------------------------------|-------------------------------|
A|---------------------------------------------|-------------------------------|
E|---------------------------------------------|-------------------------------|
                      pm-------------------------------------------------------|

e|---------------------|-------------------------------------|-------------------|
B|---------------------|-------------------------------------|-------------------|
G|-6p0-6p0-6p0-6p0-6p0-|-------------------------------------|-------------------|
D|---------------------|-------------------------------------|-------------------|
A|---------------------|-------------------------------------|-------------------|
E|---------------------|-10-10-10-10-10-10-10-10-10-10-10-10-|-10-10-9-9-10-10---|
               pm--------------------------------------------------------------|

e|---------------|----------------------------|---------------------------------|
B|---------------|----------------------------|---------------------------------|
G|---------------|----------------------------|---------------------------------|
D|---------------|----------------------------|-------------------------5-------|
A|---------------|----------------------------|-------------5-5-7-7-8-8---5-5-7-|
E|-9-9-10-10-9-9-|-9-9-9-9-9-9-9-9-9-9-9-9-10-|-5-5-7-7-8-8---------------------|


e|-------------------------------------------6-6-8-8-10-|-------------------17--|
B|-------------------------------6-6-8-8-9-9------------|-------------17-17-----|
G|-------------------5-5-7-7-8-8------------------------|-------17-17-----------|
D|-------5-5-7-7-8-8------------------------------------|-19-19-----------------|
A|-7-8-8------------------------------------------------|-----------------------|
E|------------------------------------------------------|-----------------------|

e|-0-0-0----------------------------------------------17-0-0-0------------------|
B|-------20-0-0-0-18-0-0-0-17-0-0-0-18-0-0-0-20-0-0-0----------20-0-0-0-18-0-0--|
G|------------------------------------------------------------------------------|
D|------------------------------------------------------------------------------|
A|------------------------------------------------------------------------------|
E|------------------------------------------------------------------------------|

e|-------|---------5-10-0-0-0-8-0-0-0-6-0-0-0-5-0-0-0-6-0-0-0-9-0-0-0-10-0-0-0--|
B|-0-v17-|-----6-6--------------------------------------------------------------|
G|-------|-7-7------------------------------------------------------------------|
D|-------|----------------------------------------------------------------------|
A|-------|----------------------------------------------------------------------|
E|-------|----------------------------------------------------------------------|

e|-8-0-0-0-6-0-0-0-v5-|-17-17-15-15---------------------------------------------|
B|--------------------|-------------18-18-17-17-15-15---------------------------|
G|--------------------|-------------------------------17-17-15-15-14-14-12-12---|
D|--------------------|---------------------------------------------------------|
A|--------------------|---------------------------------------------------------|
E|--------------------|---------------------------------------------------------|

e|-----------------------------|-------------------------------------------------|
B|-----------------------------|-------------------------------------------------|
G|-----------------------------|-------------------------------------------------|
D|-15-15-14-14-12-12-/11-12\-6-|-------------------------------------------------|
A|-----------------------------|-12-11-12-11-12-11-12-11-12-7-10-7-8-5-7-4-5-----|
E|-----------------------------|-------------------------------------------------|
                         ---------         ---------        -------        ------|

e|----------------------|--------------------------------------------------------|
B|----------------------|--------------------------------------------------------|
G|----------------------|----------12-14-15----------14-15-15-------14-15/-------|
D|----------------------|-12-12-12----------12-12-12----------12-12--------10----|
A|-4-5-4-5-4-5-4-5-4-v5-|--------------------------------------------------------|
E|----------------------|--------------------------------------------------------|
  --           ----         ----           -------------------------------------|        play 3 times

e|-----------------------------------------------------|-----------------|-------|
B|-----------------------------------------------------|-----------------|-------|
G|----12-14-14\-----10-12-12\-----10-12-12\-----9-10-\-|-8p5-------5-7-8-|-------|
D|-10-----------8-8-----------8-8-----------7-7--------|-----5-7-8-------|-------|
A|-----------------------------------------------------|-----------------|-------|
E|-----------------------------------------------------|-----------------|-------|
        3x        3x        3x                pm--------------------------------|    1. 2.

e|---------|---------|---------|-----------||----------------------------|-----|
B|-4p1---1-|---------|---------|-----------||----------------------------|-----|
G|-----3---|-5p3---3-|-5p4---4-|-5-4-2-4-5-||----------------------------|-----|
D|---------|-----3---|-----5---|-----------||--------------------------6-|-----|
A|---------|---------|---------|-----------||----------------------------|-----|
E|---------|---------|---------|-----------||--8-8-8-8-8-8-8-8-8-8-8-----|-----|
  pm---------------------      pm--------------------   pm---------------------|

e|---------------------------|-------------------------------------------|----|
B|---------------------------|-------------------------------------------|----|
G|---------------------------|-------------------------------------------|----|
D|-------------------------5-|-------------------------5-----------------|----|
A|---------------------------|-------------------------------------------|----|
E|-8-8-8-8-8-8-8-8-8-8-8-8---|-8-8-8-8-8-8-8-8-8-8-8-8---8-8-8-8-8-8-8-8-|----|
    mute only the single notes

e|-------------------------------------------------|-------------------------|
B|-4-----4-----8-----8-----4-----4-----6-----v6-v8-|-------------------------|
G|-5-5-5-5-5-5-7-7-7-7-7-7-5-5-5-5-5-5-7-7-7-v7-v8-|-------------------------|
D|-------------------------------------------------|-17-17-18-18-20-20-------|
A|-------------------------------------------------|-------------------------|
E|-------------------------------------------------|-------------------------|
                              3x

e|-------------------|-------------|---------------------------------------|--|
B|-------------------|-------------|---------------------------------------|--|
G|-17-17-19-19-20-20-|-20p17----17-|-------------------17-17-19-19-20-20---|--|
D|-------------------|-------17----|-17-17-18-18-20-20---------------------|--|
A|-------------------|-------------|---------------------------------------|--|
E|-------------------|-------------|---------------------------------------|--|
           3x                                                   3x

e|-------------|-------------------------------------|-------------|-----------|
B|-------------|-------------------------------------|-20p17----17-|-----------|
G|-22p19----19-|-------------------19-19-20-20-22-22-|-------17----|-----------|
D|-------19----|-19-19-20-20-22-22-------------------|-------------|-----------|
A|-------------|-------------------------------------|-------------|-----------|
E|-------------|-------------------------------------|-------------|-----------|
 pm----------------------                     pm-------------------------------|

e|-------------------------------------------|---------------------------------|
B|-------------------------------------------|---------------------------------|
G|-------------------------------------------|---------------------------------|
D|-------------------------6-----6-----6-----|-------------------------5-------|
A|-------------------------------------------|---------------------------------|
E|-8-8-8-8-8-8-8-8-8-8-8-8---8-8---8-8---8-8-|-7-7-7-7-7-7-7-7-7-7-7-7---7-7---|
             pm------------------------                    pm------------------|

e|-------------|--------------------------------------------|--------------------|
B|-------------|--------------------------------------------|--------------------|
G|-------------|--------------------------------------------|--------------------|
D|-5-----5-----|-------------------------3------3-----3-----|--------------------|
A|-------------|--------------------------------------------|--------------------|
E|---7-7---7-7-|-5-5-5-5-5-5-5-5-5-5-5-5---5--5---5-5---5-5-|-3-3-3-3-3-3-3-3----|
  pm----                     pm-------------------------------------------------|

e|---------------------------|-------------------------------------------|-------|
B|---------------------------|-------------------------------------------|-------|
G|---------------------------|-------------------------------------------|-------|
D|---------1-----1-----1-----|-------------------------0-----0-----0-----|-------|
A|---------------------------|-------------------------------------------|-------|
E|-3-3-3-3---3-3---3-3---3-3-|-2-2-2-2-2-2-2-2-2-2-2-2---2-2---2-2---2-2-|-------|
  pm----------------------------------------------------------------------------|

e|-------------------------------------------|--------------------------------|
B|-------------------------------------------|--------------------------------|
G|-------------------------------------------|--------------------------------|
D|-------------------------------------------|-5-0-0-0-7-0-0-0-8-0-0-0-10-0---|
A|-------------------------3-----3-----3-----|--------------------------------|
E|-0-0-0-0-0-0-0-0-0-0-0-0---0-0---0-0---0-0-|--------------------------------|

e|--------------------------------------------------------------|---------------|
B|--------------------------------------------------------------|---------------|
G|--------------------------------------------------------------|---------------|
D|-0-0-12-0-0-0-13-0-0-0-16-0-0-0-17-0-0-0-19-0-0-0-20-0-0-0-22-|---------------|
A|--------------------------------------------------------------|---------------|
E|--------------------------------------------------------------|---------------|

e|----------------------------------------------------------------|-----------|
B|----------------------------------------------------------------|-----------|
G|-19-17-15-------------------------------------------------------|-----------|
D|----------19-17-15----------------------------------------------|-----------|
A|-------------------18-17-15-------------------------------------|-----------|
E|----------------------------15-15-15-15-15-15-15-15-15-15-15-15-|-----------|

e|----------------------------------------------------------------|-----------|
B|-20-18-16-------------------------------------------------------|-----------|
G|----------19-17-15----------------------------------------------|-----------|
D|-------------------19-17-15-------------------------------------|-----------|
A|----------------------------15-15-15-15-15-15-15-15-15-15-15-15-|-----------|
E|----------------------------------------------------------------|-----------|

e|-18-17-15-------------------------------------------------------|-----------|
B|----------18-16-15----------------------------------------------|-----------|
G|-------------------17-15-14-------------------------------------|-----------|
D|----------------------------13-13-13-13-13-13-13-13-13-13-13-13-|-----------|
A|----------------------------------------------------------------|-----------|
E|----------------------------------------------------------------|-----------|

e|-22-20-18-------------------------------------------------------|-----------|
B|----------22-20-18----------------------------------------------|-----------|
G|-------------------20-19-17-------------------------------------|-----------|
D|----------------------------17-17-17-17-17-17-17-17-17-17-17-17-|-----------|
A|----------------------------------------------------------------|-----------|
E|----------------------------------------------------------------|-----------|

e|----------------------------------------------------------------------------|
B|-------------------19-0-0-0-20-0-0-0-19-0-0-0-------------------------------|
G|-19-0-0-0-20-0-0-0----------------------------20-0-0-0-19-0-0-0-20-0-0-0----|
D|----------------------------------------------------------------------------|
A|----------------------------------------------------------------------------|
E|----------------------------------------------------------------------------|

e|-----------------------------------------|-------------------------------------|
B|-19-0-0-0-20-0-0-0-19-0-0-0--------------|----------------------------11-------|
G|----------------------------20-0-0-0-v19-|-------------------11-12-14----14----|
D|-----------------------------------------|----------10-12-13-------------------|
A|-----------------------------------------|-10-12-13----------------------------|
E|-----------------------------------------|-------------------------------------|
                  pm------------------------------------------------------------|

e|----------------------------------------------------|-------------------------|
B|----------------------------------------------------|-------------------------|
G|-12-11----------------------------------------------|-------------------11----|
D|-------13-12-10-------------------------------------|----------10-12-13-------|
A|----------------13-13-13-13-13-13-13-13-13-13-13-13-|-10-12-13----------------|
E|----------------------------------------------------|-------------------------|

e|----------------12-14-15-14-12----------|-------------------------------------|
B|-------12-13-15----------------15-14-12-|----------------------------12-13----|
G|-12-14----------------------------------|-------------------11-12-14----------|
D|----------------------------------------|----------10-12-13-------------------|
A|----------------------------------------|-10-12-13----------------------------|
E|----------------------------------------|-------------------------------------|

e|----12-14-15-14-15-v17-|-----------------------------------|------------------|
B|-15--------------------|-----------------------------------|------------------|
G|-----------------------|-7--3------------------------------|------------------|
D|-----------------------|-7--3------------------------------|-------------12---|
A|-----------------------|-5--1--v10-v9-------v10-v10-v9-v12-|------------------|
E|-----------------------|--------------/3-v6----------------|-15-15-15-15------|

e|-----------------------------------------------------|------------------------|
B|----------------------11-11-11-11--------------------|------------------------|
G|----------12-12-12-12-------------12-12-12-12--------|------------------------|
D|-12-12-12-------------------------------------12-v12-|------------------------|
A|-----------------------------------------------------|------------------------|
E|-----------------------------------------------------|------------------------|
   sweep picking

e|-18p15-------15----------10p6---------|-------------------------------------|
B|-------15-------15------------8---v8\-|-------------------------------------|
G|----------15-------15-----------7-----|-------------------------------------|
D|----------------------17--------------|-------------------------------------|
A|--------------------------------------|-------------------------------------|
E|--------------------------------------|-------------------------------------|



************************************

| t  Tapping
| p  Pull-off
| /  Slide up
| \  Slide down
| pm Palm Mute

************************************
Suggest correction
comments
print report bad tab
3 comments total.
+1 reply
Samothomas 10 May 22, 2008 09:32 AM

I believe the start of the song is missing. At least with the version I know.

Still an awesome job though. From what I could tell it's 100% correct.

+1 reply
MarasParas 10 Oct 13, 2013 02:34 PM

I guess this would be the intro, other than that the tab is great!

E||---------------------------|---------------------------|
B||---------------------------|---------------------------|
G||--12-0-0-0-0-0-0-0-0-0-0-0-|--10-0-0-0-0-0-0-0-0-0-0-0-|
D||---------------------------|---------------------------|
A||---------------------------|---------------------------|
E||---------------------------|---------------------------|

--------------------------|-----------------------|------|
--------------------------|-----------------------|------|
--8-0-0-0-0-0-0-0-0-0-0-0-|--7-0-0-0-0-0-0-0-0----|------|
--------------------------|-----------------------|------|
--------------------------|-----------------------|------|
--------------------------|-----------------------|------|

---------------------------|---------------------------|
---------------------------|---------------------------|
---------------------------|---------------------------|
--12-0-0-0-0-0-0-0-0-0-0-0-|--10-0-0-0-0-0-0-0-0-0-0-0-|
---------------------------|---------------------------|
---------------------------|---------------------------|

--------------------------|-----------------------|
--------------------------|-----------------------|
--------------------------|-----------------------|
--8-0-0-0-0-0-0-0-0-0-0-0-|--7-0-0-0-0-0-0-0-0----|
--------------------------|-----------------------|
--------------------------|-----------------------|

0 reply
aurum99 194 Apr 05, 2016 11:13 AM

thanks :)

guest
You may want to rate the tab now too:
select rating
Wanna post a correction for this tab? Suggest correction