Oops, an error
Loading. Please wait.

After Awhile tab

version 2
version 2

Whole song

235 views 1 this week
no commentswrite comment
1 2 3 4 5
1 last vote to show rating
add to favorites
×
Save as Personal and add changes to this tab that will be seen only by you. Learn more ›
×
You can save this tab as Personal to edit and correct it or add notes. All changes will be seen only by you. Learn more »
launch autoscroll
font size
0
reset
how to read this tab
guitar tuner
edit
Autoscroll
slow
fast
+/-
esc
set tempo
stop
Author
Difficulty
-------------------------------------------------------------------------------
                             After Awhile - Patrick Sweany
-------------------------------------------------------------------------------
Tabbed by: Marc van den Hout
E-mail:    mvdhout90@gmail.com

Tuning: Standard

Intro
e|---------------------------------------------------------------------------|
B|---------------------------------------------------------------------------|
G|---9-9-12-9----------------------------------------------------------------|
D|------------12-10----10h12--10---------------------------------------------| 1X
A|------------------12-------------------------------------------------------|
E|---------------------------------------------------------------------------|

Don't pull off but pick every note as Patrick Sweany does this as well
e|---------------------------------------------------------------------------|
B|---------------------------------------------------------------------------|
G|---------------------------------------------------------------------------|
D|---------------------------------------------------------------------------| 2X
A|---12-10----12-10----12-10----12-10----12-10----12-10----12-10----12-10----|
E|---------12-------12-------12-------12-------12-------12-------12-------12-|

Riff 1
Worry, Worry All day long (hear me, hear me)            
e|------------------------------------------------------------|
B|------------------------------------------------------------|
G|-9-9-12-9---------------------9------11/12\11---------------|
D|----------12-10----10h12--10--10-----12/13\12--10--10-12-12-|
A|----------------12---------------12-------------------------|
E|------------------------------------------------------------|
                                                                      } 2X
 I sit back and get to sing the worried song (hear me, hear me)
e|------------------------------------------------------------|
B|------------------------------------------------------------|
G|-9-9--------------------9------11/12\11---------------------|
D|-----12-10----10-12-----10-----12/13\12--10--10-12-12-------|
A|-----------12-------12-----12-------------------------------|
E|------------------------------------------------------------|

Riff 2
Again pick every note, try not to pull off
e|---------------------------------------------------------------------------|
B|---------------------------------------------------------------------------|
G|---------------------------------------------------------------------------|
D|---------------------------------------------------------------------------|
A|---------------------------------------------------------------------------| 2X
E|---12-10----12-10----12-10----12-10----12-10----12-10----12-10----12-10----|
E|---------12-------12-------12-------12-------12-------12-------12-------12-|

Riff 3
At the end of this riff he slips in a little note (A). You play it right after the two chords and before you
start playing this riff the second time. 

  After awile you gonna see what it means to me       After awhile you gonna know
e|-------------------------------------------------|--------------------------------------------------|
B|-10----------------------------------------------|-10-----------------------------------------------|
G|----12-9------------------------------9----------|----12-9------------------------------------------|
D|---------12--12-10----10h12--12-10------12p10----|---------12--12-10----10h12--12p10-----10--12-----| 2X
A|-------------------12--------------12---------12-|-------------------12--------------12--10--12--12-|
E|-------------------------------------------------|---------------------------------------8---10-----|

Play Riff 2 twice but the second time it has a different ending:
e|---------------------------------------------------------------------------|
B|---------------------------------------------------------------------------|
G|---------------------------------------------------------------------------|
D|--10--12--7---------10--12--7---------10--12-------------------------------|
A|--10--12--7---------10--12--7---------10--12-------------------------------|
E|--8---10--5---------8---10--5---------8---10-------------------------------|

These are all the riffs that are played throughout the song except for the solo. Haven't figured the solo out
just yet but I'll upload it as soon as I have.

|-------------------------------------------------------------------------------|
|  Let me know if this tab works for you in the comment section or via email.   |
|-------------------------------------------------------------------------------|

Structure of the song:
Intro
Riff 1
Riff 2
Riff 3

Riff 1
Riff 2
Riff 3

Solo   (not included)

Riff 1
Riff 2
Riff 3

************************************

| /   slide up
| \   slide down
| h   hammer-on
| p   pull-off
| ~   vibrato
| +   harmonic
| x   Mute note
| b   Bend
| pb  Pre-bend
| br  Bend release
| pbr Pre-bend release
| brb Bend release bend

************************************

            
            
Suggest correction
Creating personal tab
Creating personal tab
You can edit any tab online and save it as your Personal.

You can edit, replace or remove any tab part or add personal notes – all changes will be seen only by you.

Personal tabs can be accessed anytime from any device, even offline.
Learn more »
Give kudos to tab author, rate the tab!
1 2 3 4 5
comments
print report bad tab
guest
You may want to rate the tab now too:
select rating
Wanna post a correction for this tab? Suggest correction