Oops, an error
Loading. Please wait.

Them Shoes tab

version 1
version 1

Whole song

Interactive

32,475 views 57 this week
3 commentsread comments
1 2 3 4 5
x 35
add to favorites
×
Save as Personal and add changes to this tab that will be seen only by you. Learn more ›
×
You can save this tab as Personal to edit and correct it or add notes. All changes will be seen only by you. Learn more »
launch autoscroll
font size
0
reset
how to read this tab
guitar tuner
edit
Autoscroll
slow
fast
+/-
esc
set tempo
stop
Author
Difficulty
Unregistered
[Intro]
e-----------------------------------------------------|
B--------------------------------------8-8-10-8-------|
G----0----0-----0-----0------0----0----0-0-0--0-------|
D-----------------------------------------------------|
A-----------------------------------------------------|
E--3---3----3/6----6----6/8----8----8-----------------|

[Verse:] Style 1
e--3-1------------------------------------------------|
B------3-1-----3-1-----3-1----------------------------|
G----------3-0-----3-0-----3-0-3b-(Immediately go back|
D----------------------------------to Intro riff in---|
A----------------------------------between Verses)----|
E-----------------------------------------------------|

[Verse:] Style 2 (This riff starts after the fourth verse and after you have played
two sets of the intro as a fill)
e-----------------------------------------------------|
B------------------------------6----------------------|
G---6-7-6-7-6-7-0-3-5--5-5-5/7---7\5------------------|
D-----------------------------------------------------|
A-----------------------------------------------------|
E-----------------------------------------------------|

That's all I could figure out by ear, and I know parts of it are wrong, but it
should get you somewhere.



************************************

| b  Bend
| /  Slide up
| \  Slide down

************************************

            
            
Suggest correction
Creating personal tab
Creating personal tab
You can edit any tab online and save it as your Personal.

You can edit, replace or remove any tab part or add personal notes – all changes will be seen only by you.

Personal tabs can be accessed anytime from any device, even offline.
Learn more »
comments
print report bad tab
3 comments total. show 1 bad comment
0 reply
wtflazers 10 Nov 01, 2012 04:20 PM

Wish there was more of the song.

+3 reply
hubajube25 10 Apr 01, 2014 07:12 AM

Riff #2 is not inaccurate above, but probably best played in open position. My attempt at it below.

(approx. 1:12)

e------------------------------------1----0-----------|
B----2-3-2-3-2-3-----------------1---3----1-----------|
G-----------------0------0---H3-----(0)--(0)----------|
D--------------------3B (1 step)----------------------|
A-----------------------------------------------------|
E-----------------------------------------------------|

approx. 1:18

e---------------------------------1----0--------------|
B----2-3-2-3-2-3-------------2-3--3----1--------------|
G-----------------0--3B--0-------(0)--(0)-------------|
D-----------------------------------------------------|
A-----------------------------------------------------|
E-----------------------------------------------------|

Probably not note for note, but gets much of the primary melody.

guest
Wanna post a correction for this tab? Suggest correction