Oops, an error
Loading. Please wait.

Giver intro tab

3,162 views 3 this week
1 commentread comment
1 2 3 4 5
1 last vote to show rating
add to favorites
×
Save as Personal and add changes to this tab that will be seen only by you. Learn more ›
×
You can save this tab as Personal to edit and correct it or add notes. All changes will be seen only by you. Learn more »
launch autoscroll
font size
0
reset
how to read this tab
guitar tuner
edit
Autoscroll
slow
fast
+/-
esc
set tempo
stop
Author
Patrick Watson
-Giver-
http://www.patrickwatson.net

Intro.

Repeat(x4)
E---4----4----4----4----4--------4---4--------4---4-------|
B----5----5----5----5----5---0h2--4---4---2h4--4---4------|
G-----4----4----4----4----4--------4---4--------4---4-----|
D---------------------------------------------------------|
A---------------------------------------------------------|
E---------------------------------------------------------|

E-----4---4------5----5------5---5------------------------|
B------5---5------5----5------5---5-----------------------|
G---6---6------6----6------5---5--------------------------|
D---------------------------------------------------------|
A---------------------------------------------------------|
E---------------------------------------------------------|

Repeat All.

That's it for Patrick Watson : Giver - Intro tab

            
            
Suggest correction
Creating personal tab
Creating personal tab
You can edit any tab online and save it as your Personal.

You can edit, replace or remove any tab part or add personal notes – all changes will be seen only by you.

Personal tabs can be accessed anytime from any device, even offline.
Learn more »
Give kudos to tab author, rate the tab!
1 2 3 4 5
comments
print report bad tab
1 comment total.
0 reply
RikkyC 155 Apr 09, 2010 09:17 PM

this is great, although i find it easier to hammer on the G-string and not play the B/C# open, like so:

E---4----4----4----4----4--------4---4--------4---4-------|
B----5----5----5----5----5--------4---4---2h4--4---4------|
G-----4----4----4----4----4--4h6---4---4--------4---4-----|
D---------------------------------------------------------|
A---------------------------------------------------------|
E---------------------------------------------------------|

guest
You may want to rate the tab now too:
select rating
Wanna post a correction for this tab? Suggest correction