Oops, an error
Loading. Please wait.

Strange Crooked Road Tab

233 views 1 this week
1 commentread comment
1 2 3 4 5
please rate
add to favorites
launch autoscroll
font size
0
reset
how to read this tab
guitar tuner
Autoscroll
slow
fast
+/-
esc
set tempo
stop
Help us to improve Ultimate-Guitar.com Take our survey!
×
Difficulty
novice
There was no tab for this so I thought I'd give it a go. I've only been able to go as 
far as the main guitar riff. Maybe someone could expand on it.

Anywho: Standard tuning

                                    V

e||-8--8--10-8-|-7--7--10-8-|-7-----7----|------------|
B||--8--8------|--8--8------|--8----8----|------------|
G||---9--9-----|---9--9-----|---7---8----|------------|
D||------------|------------|----9--9----|------------|
A||------------|------------|------------|------------|
E||------------|------------|------------|------------|
comments
We did not receive enough feedback on this tab! Please rate:
print report bad tab
1 2 3 4 5
1 comment total.
0 reply
erroneousfiend 11 wrote on February 23 2015, 11:45 am

V

e||-4--4--6--4-|-3--3--6--4-|-3-----3----|------------|
B||--4--4------|--6--4------|--4----4----|------------|
G||---5--5-----|---5--5-----|---3---4----|------------|
D||------------|------------|----5--5----|------------|
A||------------|------------|------------|------------|
E||------------|------------|------------|------------|

I want to post or [tab]
guest
You may want to rate the tab now too:
select rating
Please do not post tabs as comments. Select "correction" instead!