Oops, an error
Loading. Please wait.

Words In The Fire tab

version 2
version 2

Whole song

377 views 3 this week
1 commentread comment
1 2 3 4 5
2 more votes to show rating
add to favorites
×
Save as Personal and add changes to this tab that will be seen only by you. Learn more ›
×
You can save this tab as Personal to edit and correct it or add notes. All changes will be seen only by you. Learn more »
launch autoscroll
font size
0
reset
how to read this tab
guitar tuner
edit
Autoscroll
slow
fast
+/-
esc
set tempo
stop
Author
Difficulty
-------------------------------------------------------------------------------
                             Words In The Fire - Patrick Watson
-------------------------------------------------------------------------------
Tabbed by:Indie Guitar tabs

Tuning: EADGBD (drop high E down one step to D)

  [Lead in...]
D|-------0-------0---0-------0---------0-------0---0-------0------|
B|---------0---0-------0---0-------------0---0-------0---0--------|
G|----------------------------------------------------------------|
D|-----------0-----------0-----------------0-----------0----------|
A|-12/10-----------10------------12/10-----------10---------------|
E|----------------------------------------------------------------|

  [Verses]
                                            /------------  x2  -------------\
D|-----0------0-----0-----0------0------0---|-------0-------0---0-------0---|
B|-------0------0-----0-----0------0------0-|---------0---0-------0---0-----|
G|--12-----11-----9-------------------------|-------------------------------|
D|----------------------9-----10-----12-----|-----------0-----------0-------|
A|------------------------------------------|----10-----------10------------|
E|------------------------------------------|-------------------------------|
    Put    your   words in -  to     the      fire.
    Let    me     shake your  ho  -  nest     hands.
    We     were  down   on    san -  dy       beach.

                                            /---------  x2  -------------\
D|-----0------0-----0-----0------0------0---|---0--------0---0--------0---|
B|-------0------0-----0-----0------0------0-|-----0----0-------0----0-----|
G|--12-----11-----9-------------------------|-----------------------------|
D|----------------------9-----10-----12-----|-------10-----------10-------| 
A|------------------------------------------|-----------------------------|
E|------------------------------------------|-8------------8--------------|
    Watch them   burn  your  heart's de  -  sires.                         
And I'll  sit    down  beside you    now
  A old    man   takin' a    young   man's   words.

                            /---------  x2 ------------\
D|-----0------0-----0-------|---0-------0---0-------0---|
B|-------0------0-----0-----|-----0---0-------0---0-----|
G|--------------------------|---------------------------|
D|--10------9-----7-----5---|-------4-----------4-------|
A|--------------------------|-5-----------5-------------|
E|--------------------------|---------------------------|
    Rise    up    in    the   air
    Lean    our    heavy      heads
Tell me  where you would like to be.

                                            /---------  x2  -------------\
D|-----0-----0-----0-----0------0------0---|---0--------0---0--------0---|
B|-------0-----0-----0-----0------0------0-|-----0----0-------0----0-----|
G|-----------------------------------------|-----------------------------|
D|---4-----5-----7-----9-----14-----12-----|-------10-----------10-------| 
A|-----------------------------------------|-----------------------------|
E|-----------------------------------------|-8------------8--------------|
In a cloud of   silt  and   smoke     and  dust.
On the weight of the things I left  un  -  said.
Tonight     don't  be       afr -  aid     to dream.

                            /---------  x2 ------------\
D|-----0------0-----0-------|---0-------0---0-------0---|
B|-------0------0-----0-----|-----0---0-------0---0-----|
G|--------------------------|---------------------------|
D|--10------9-----7-----5---|-------4-----------4-------|
A|--------------------------|-5-----------5-------------|
E|--------------------------|---------------------------|
    Fade    in - to     the   night.
Don't worry  about  it        now.
  Lean     on    the  fire for a while.

                                                        /----------- x2 ------------\
D|-----0-----0-----0-----0-----0------0------0------0---|-----0-------0---0-------0---|
B|-------0-----0-----0-----0-----0------0------0------0-|-------0---0-------0---0-----|
G|------------------------------------------------------|-----------------------------|
D|---4-----5-----7-----9-----------10------------12-----|---------0-----------0-------| 
A|------------------------------------------------------|-----------------------------|
E|---------------------------8------------10------------|---3-----------3-------------|
It's a comforting feeling with you      at     my       side.
Cause in the morning it'll all just be ashes on the ground.
Cause in the morning it'll all just be ashes on the ground.


  [Middle - Chorus]              /------ x4 ------\ /----- x4 -------\
D|-----0------0------0------0---|----0----------0--|----0---------0--|
B|-------0------0------0------0-|------12----12----|------10---10----|
G|--12-----14-----11-----12-----|------------------|-----------------|
D|------------------------------|---------10-------|---------9-------|
A|------------------------------|------------------|-----------------|
E|------------------------------|-12---------------|-10--------------|
 So whats  been   on     your   mind               
  Eat  -  in'     you    in  -  side
 Takin'   all    of      your   time                              On this

D|-----0--------0---0--------0---0-------0---0-------0--------------------------|
B|-------0----0-------0----0-------0---0-------0---0----------------------------|
G|------------------------------------------------------------------------------|
D|---------10-----------10-----------9-----------9------------------------------|
A|------------------------------------------------------------------------------|
E|---8------------8------------7-----------7------------------------------------|
     warm               summer night

                                                   /----------- x4 ---------------\
D|---0-------0---0-------0---0-------0---0---0///--|-------0-------0---0-------0---|
B|-----0---0-------0---0-------0---0-------0-------|---------0---0-------0---0-----|
G|-------------------------------------------------|-------------------------------|
D|-------8-----------8-----------8-----------8///--|-----------0-----------0-------| 
A|-------------------------------------------------|-------------------------------|
E|-6-----------6-----------6-----------6-----------|-(5/)3-----------3-------------|
                  Put    your   words down in the    fire.

            
            
Suggest correction
Creating personal tab
Creating personal tab
You can edit any tab online and save it as your Personal.

You can edit, replace or remove any tab part or add personal notes – all changes will be seen only by you.

Personal tabs can be accessed anytime from any device, even offline.
Learn more »
Give kudos to tab author, rate the tab!
1 2 3 4 5
comments
print report bad tab
1 comment total.
0 reply
mojo75 246 May 17, 2016 08:15 AM

Hey, I really love you tab! I was just wondering, in the third line of the verse (Rise up in the air), between "the" and "air", are there two notes missing or is the tab actually like that? It seems to break the pattern a bit, and it goes by pretty fast in the song, so it is hard to tell. It happends again two lines latter (fade into the night).

guest
You may want to rate the tab now too:
select rating
Wanna post a correction for this tab? Suggest correction