Oops, an error
Loading. Please wait.

Tristan Tab

3,342 views 1 this week
1 commentread comment
1 2 3 4 5
please rate
add to favorites
launch autoscroll
font size
0
reset
how to read this tab
guitar tuner
Autoscroll
slow
fast
+/-
esc
set tempo
stop
Help us to improve Ultimate-Guitar.com Take our survey!
×
Author
Difficulty
novice
e-121212-121212----|
B-121212-121212----|
G-121212-121212----| Played as intro, and also in the background throughout the 
D------------------| whole song
A------------------|
E------------------|


Main Riff:
e-----------------|
B-----------------|
G-----x-4---------|
D-6-x-x-4-66/4/6--|x3
A-6-x-x-2-66/4/6--|
E-4-x-----44/2/4--|
 
third time:
e-----------------|
B-----------------|
G-----x-4---------|
D-6-x-x-4-66/4/6--|PAUSE
A-6-x-x-2-66/4/6--|
E-4-x-----44/2/4--|            


         e-----------------|
         B-----------------|
         G-----x-4---------|
         D-6-x-x-4-66/4/6--|
         A-6-x-x-2-66/4/6--|
         E-4-x-----44/2/4--|
I am the  tragedy...


---------|                               -------------|
---------|                               -------------|
---------|                               --x--x--x----|
-66/4/6--|          PAUSE                --x--x--x----|
-66/4/6--|                               --x--x--x----|
-44/2/4--|                               -------------|
my name is tristan..     and I am alive   UH  UH UGH!




Chorus:
e------------------------------|
B------------------------------|
G-44-xxxx-66-------------------|
D-44-xxxx-66-6-6/4/6--xxx------|
A-22-xxxx-44-6-6/4/6--xxx------|
E------------4-4/2/4--xxx------|

Main riff again.

Etc

It is pretty basic. =\
Yeah

<3
xx
Suggest correction
Give kudos to tab author, rate the tab!
1 2 3 4 5
comments
print report bad tab
1 comment total.
0 reply
Indie Purist 949 wrote on August 31 2009, 01:06 pm

The main chord is

e|--11----------------------------------------------------------------
B|--9-----------------------------------------------------------------
G|--11----------------------------------------------------------------
D|--9----------------------------------------------------------------
A|--------------------------------------------------------------------
E|-------------------------------------------------------------------

guest
You may want to rate the tab now too:
select rating
Wanna post a correction for this tab? Suggest correction