Oops, an error
Loading. Please wait.

Back In Babys Arms bass

25 views 3 this week
no commentswrite comment
1 2 3 4 5
3 more votes to show rating
add to favorites
×
Save as Personal and add changes to this tab that will be seen only by you. Learn more ›
×
You can save this tab as Personal to edit and correct it or add notes. All changes will be seen only by you. Learn more »
launch autoscroll
font size
0
reset
guitar tuner
edit
Autoscroll
slow
fast
+/-
esc
set tempo
stop
 [Intro]                                                                   
G|--------------------------------|--------------------------------|
D|----------------------------1---|------1-1-------------1-1-------|
A|--------------------------------|--------------------------------|
E|--------------------------------|4---------------4---------------|
 
                                                                    
G|------3-3-------------3-3-------|--------------------------------|
D|1---------------1---------------|------1-1-------------1-1-------|
A|--------------------------------|--------------------------------|
E|--------------------------------|4---------------4---------------|
 
                                  [Verse 1]                                  
G|------3-3-------------3-3-------|1---------------1---------------|
D|1---------------1-----------1---|------1-1-------------1-1-------|
A|--------------------------------|--------------------------------|
E|--------------------------------|--------------------------------|
 
                                                                    
G|--------------------------------|------3-3-------------3-3-------|
D|1---------------1---------------|--------------------------------|
A|------1-1-------------1-1-------|1---------------1---------------|
E|--------------------------------|--------------------------------|
 
 [Chorus 1]                                                                   
G|1---------------1---------------|1-------------------------------|
D|------1-1-------------1-1-------|------1-1-------3-------1-------|
A|--------------------------------|--------------------------------|
E|--------------------------------|--------------------------------|
 
                                                                    
G|--------------------------------|------3-3-------------3-3-------|
D|--------------------------------|1---------------1---------------|
A|4-------3-------1---------------|--------------------------------|
E|----------------------4-4-------|--------------------------------|
 
 [Verse 2]                                                                   
G|--------------------------------|1---------------1---------------|
D|------1-1-------------1-1---3---|------1-1-------------1-1-------|
A|--------------------------------|--------------------------------|
E|4---------------4---------------|--------------------------------|
 
                                                                    
G|--------------------------------|--------------------------------|
D|1---------------1---------------|1---------------1---------------|
A|------1-1-------------1-1-------|------1-1-------------1-1-------|
E|--------------------------------|--------------------------------|
 
                                  [Chorus 2]                                 
G|1---------------1---------------|--------------------------------|
D|------1-1-------------1-1-------|3-------3---3---3-------3-------|
A|--------------------------------|--------------------------------|
E|--------------------------------|--------------------------------|
 
                                                                    
G|--------------------------------|------------------------1-------|
D|--------------------------------|----------------1---------------|
A|3-------3---3---3-------3-------|4-------------------------------|
E|--------------------------------|--------4-----------------------|
 
                                   [Verse 3]                                 
G|1---------------1-----------0---|1---------------1---------------|
D|------1-1-----------1---3-------|------1-1-------------1-1-------|
A|--------------------------------|--------------------------------|
E|--------------------------------|--------------------------------|
 
                                                                    
G|--------------------------------|--------------------------------|
D|1---------------1---------------|1---------------1---------------|
A|------1-1-------------1-1-------|------1-1-------------1-1-------|
E|--------------------------------|--------------------------------|
 
                                   [Chorus 3]                                 
G|1---------------1---------------|1-------------------------------|
D|------1-1-------------1-1-------|------1-1-------3-------1-------|
A|--------------------------------|--------------------------------|
E|--------------------------------|--------------------------------|
 
                                                                    
G|--------------------------------|----------------------3-3-------|
D|------------------------------1-|1---------------1---------------|
A|4-------3-------1---------------|--------1-----------------------|
E|----------------------4-4-------|--------------------------------|
 
                                                                    
G|1---------------1-----------0---|--------------------------------|
D|------1-1-----------1---3-------|1---------------1-----2-2-------|
A|--------------------------------|------1-1-----------------------|
E|--------------------------------|--------------------------------|
 
  [Key Change]                                                                  
G|2---------------2---------------|----------------------------1---|
D|------2-2-------------2-2-------|2-------------2-2---2---4-------|
A|--------------------------------|------2-2-----------------------|
E|--------------------------------|--------------------------------|
 
 [Verse 4]                                                                   
G|2---------------2---------------|--------------------------------|
D|------2-2-------------2-2-------|2---------------2---------------|
A|--------------------------------|------2-2-------------2-2-------|
E|--------------------------------|--------------------------------|
 
                                                                    
G|--------------------------------|2---------------2---------------|
D|2---------------2---------------|------2-2-------------2-2-------|
A|------2-2-------------2-2-------|--------------------------------|
E|--------------------------------|--------------------------------|
 
 [Chorus 4]                                                                   
G|--------------------------------|--------------------------------|
D|4-------4---4---4-------4-------|--------------------------------|
A|--------------------------------|4-------4---4---4-------4-------|
E|--------------------------------|--------------------------------|
 
                                                                    
G|------------------------2-------|2---------------2-----------1---|
D|0---------------2---------------|------2-2-----------2---4-------|
A|--------0-----------------------|--------------------------------|
E|--------------------------------|--------------------------------|
 
 [Verse 5]                                                                   
G|2---------------2---------------|--------------------------------|
D|------2-2-------------2-2-------|2---------------2---------------|
A|--------------------------------|------2-2-------------2-2-------|
E|--------------------------------|--------------------------------|
 
                                                                    
G|--------------------------------|2---------------2---------------|
D|2---------------2---------------|------2-2-------------2-2-------|
A|------2-2-------------2-2-------|--------------------------------|
E|--------------------------------|--------------------------------|
 
 [Chorus 5]                                                                   
G|2-------------------------------|--------------------------------|
D|------2-2-------4-------2-------|0-------------------------------|
A|--------------------------------|--------4-------2-----0-0-------|
E|--------------------------------|--------------------------------|
 
                                                                    
G|----------------------4-4-------|2---------------2-----------1---|
D|2---------------2---------------|------2-2-----------2---4-------|
A|--------2-----------------------|--------------------------------|
E|--------------------------------|--------------------------------|
 
 [Outro]                                                                   
G|----------------------4-4-------|2---------------2-----------1---|
D|2---------------2---------------|------2-2-----------2---4-------|
A|--------2-----------------------|--------------------------------|
E|--------------------------------|--------------------------------|
 
                                                                    
G|----------------------4-4-------|2---------------2-----------1---|
D|2---------------2---------------|------2-2-----------2---4-------|
A|--------2-----------------------|--------------------------------|
E|--------------------------------|--------------------------------|

            
            
Suggest correction
Creating personal tab
Creating personal tab
You can edit any tab online and save it as your Personal.

You can edit, replace or remove any tab part or add personal notes – all changes will be seen only by you.

Personal tabs can be accessed anytime from any device, even offline.
Learn more »
Give kudos to tab author, rate the tab!
1 2 3 4 5
comments
print report bad tab
guest
You may want to rate the tab now too:
select rating
Wanna post a correction for this tab? Suggest correction