Oops, an error
Loading. Please wait.

Dont Let Me Die In Florida chords

19 views 3 this week
no commentswrite comment
1 2 3 4 5
3 more votes to show rating
add to favorites
×
Save as Personal and add changes to this tab that will be seen only by you. Learn more ›
×
You can save this tab as Personal to edit and correct it or add notes. All changes will be seen only by you. Learn more »
launch autoscroll
font size
0
reset
transpose
0
reset
simplify chords
display chords
guitar tuner
edit
Autoscroll
slow
fast
+/-
esc
set tempo
stop
Strumming
There is no strumming pattern for this song yet. and get +5 IQ
Artist: Patty Griffin
Song: Dont Let Me Die In Florida
Tuning: Open D - D A D F# A D  capo 5th fret
tabbed by electricbunny

[Chords]
G       000007
Gadd#11 000006
Gadd#9  000003
Gadd11  000005

[Intro]
D |--6---7---7---6---7-----0---0----|-----0---0---3---0---3---0---0----|
A |--0---0---0---0---0-----0---0----|-----0---0---0---0---0---0---0----|
F#|--0---0---0---0---0-----0---0----|-----0---0---0---0---0---0---0----|
D |--0---0---0---0---0-----0---0----|-----0---0---0---0---0---0---0----|
A |--0---0---0---0---0-----0---0----|-----0---0---0---0---0---0---0----|
D |--0---0---0---0---0-----0---0----|-----0---0---0---0---0---0---0----|

D |--6---7---7---6---7-----0---0----|-----3---0---3---3---0---0---0----|
A |--0---0---0---0---0-----0---0----|-----0---0---0---0---0---0---0----|
F#|--0---0---0---0---0-----0---0----|-----0---0---0---0---0---0---0----|
D |--0---0---0---0---0-----0---0----|-----0---0---0---0---0---0---0----|
A |--0---0---0---0---0-----0---0----|-----0---0---0---0---0---0---0----|
D |--0---0---0---0---0-----0---0----|-----0---0---0---0---0---0---0----|

D |--6---7---7---6---7-----0---0----|-----0---0---3---0---3---0---0----|
A |--0---0---0---0---0-----0---0----|-----0---0---0---0---0---0---0----|
F#|--0---0---0---0---0-----0---0----|-----0---0---0---0---0---0---0----|
D |--0---0---0---0---0-----0---0----|-----0---0---0---0---0---0---0----|
A |--0---0---0---0---0-----0---0----|-----0---0---0---0---0---0---0----|
D |--0---0---0---0---0-----0---0----|-----0---0---0---0---0---0---0----|

D |--6---7---7---6---7-----0---0----|--5---3---0---0------0---0---0----|
A |--0---0---0---0---0-----0---0----|--0---0---0---0------0---0---0----|
F#|--0---0---0---0---0-----0---0----|--0---0---0---0------0---0---0----|
D |--0---0---0---0---0-----0---0----|--0---0---0---0------0---0---0----|
A |--0---0---0---0---0-----0---0----|--0---0---0---0------0---0---0----|
D |--0---0---0---0---0-----0---0----|--0---0---0---0------0---0---0----|

[Chorus]
G
Please don't let me die in Florida,
G
I don't care about my name.
G
If you catch me dying in Daytona
G
Throw my bed on to a train.

D |--6---7---7---6---7-----0---0----|-----0---0---3---0---3---0---0----|
A |--0---0---0---0---0-----0---0----|-----0---0---0---0---0---0---0----|
F#|--0---0---0---0---0-----0---0----|-----0---0---0---0---0---0---0----|
D |--0---0---0---0---0-----0---0----|-----0---0---0---0---0---0---0----|
A |--0---0---0---0---0-----0---0----|-----0---0---0---0---0---0---0----|
D |--0---0---0---0---0-----0---0----|-----0---0---0---0---0---0---0----|

D |--6---7---7---6---7-----0---0----|-----3---0---3---3---0---0---0----|
A |--0---0---0---0---0-----0---0----|-----0---0---0---0---0---0---0----|
F#|--0---0---0---0---0-----0---0----|-----0---0---0---0---0---0---0----|
D |--0---0---0---0---0-----0---0----|-----0---0---0---0---0---0---0----|
A |--0---0---0---0---0-----0---0----|-----0---0---0---0---0---0---0----|
D |--0---0---0---0---0-----0---0----|-----0---0---0---0---0---0---0----|

D |--6---7---7---6---7-----0---0----|-----0---0---3---0---3---0---0----|
A |--0---0---0---0---0-----0---0----|-----0---0---0---0---0---0---0----|
F#|--0---0---0---0---0-----0---0----|-----0---0---0---0---0---0---0----|
D |--0---0---0---0---0-----0---0----|-----0---0---0---0---0---0---0----|
A |--0---0---0---0---0-----0---0----|-----0---0---0---0---0---0---0----|
D |--0---0---0---0---0-----0---0----|-----0---0---0---0---0---0---0----|

D |--6---7---7---6---7-----0---0----|--5---3---0---0------0---0---0----|
A |--0---0---0---0---0-----0---0----|--0---0---0---0------0---0---0----|
F#|--0---0---0---0---0-----0---0----|--0---0---0---0------0---0---0----|
D |--0---0---0---0---0-----0---0----|--0---0---0---0------0---0---0----|
A |--0---0---0---0---0-----0---0----|--0---0---0---0------0---0---0----|
D |--0---0---0---0---0-----0---0----|--0---0---0---0------0---0---0----|

[Verse]
G
I was born in Indian summer,
G
In the Southern long ago.
G
Where those dirty streets cry out for rain
G
And this is what I know.
G
And the rain came and the holly stopped
G
Just in time for snow.
G
And the icey cold filled up my shoes
G
And this is what I know.

[Chorus]
G
Please don't let me die in Florida,
G
I don't care about my name.
G
If you catch me dying in Orlando
G
Throw my bed on to a train.

D |--6---7---7---6---7-----0---0----|-----0---0---3---0---3---0---0----|
A |--0---0---0---0---0-----0---0----|-----0---0---0---0---0---0---0----|
F#|--0---0---0---0---0-----0---0----|-----0---0---0---0---0---0---0----|
D |--0---0---0---0---0-----0---0----|-----0---0---0---0---0---0---0----|
A |--0---0---0---0---0-----0---0----|-----0---0---0---0---0---0---0----|
D |--0---0---0---0---0-----0---0----|-----0---0---0---0---0---0---0----|

D |--6---7---7---6---7-----0---0----|-----3---0---3---3---0---0---0----|
A |--0---0---0---0---0-----0---0----|-----0---0---0---0---0---0---0----|
F#|--0---0---0---0---0-----0---0----|-----0---0---0---0---0---0---0----|
D |--0---0---0---0---0-----0---0----|-----0---0---0---0---0---0---0----|
A |--0---0---0---0---0-----0---0----|-----0---0---0---0---0---0---0----|
D |--0---0---0---0---0-----0---0----|-----0---0---0---0---0---0---0----|

D |--6---7---7---6---7-----0---0----|-----0---0---3---0---3---0---0----|
A |--0---0---0---0---0-----0---0----|-----0---0---0---0---0---0---0----|
F#|--0---0---0---0---0-----0---0----|-----0---0---0---0---0---0---0----|
D |--0---0---0---0---0-----0---0----|-----0---0---0---0---0---0---0----|
A |--0---0---0---0---0-----0---0----|-----0---0---0---0---0---0---0----|
D |--0---0---0---0---0-----0---0----|-----0---0---0---0---0---0---0----|

D |--6---7---7---6---7-----0---0----|--5---3---0---0------0---0---0----|
A |--0---0---0---0---0-----0---0----|--0---0---0---0------0---0---0----|
F#|--0---0---0---0---0-----0---0----|--0---0---0---0------0---0---0----|
D |--0---0---0---0---0-----0---0----|--0---0---0---0------0---0---0----|
A |--0---0---0---0---0-----0---0----|--0---0---0---0------0---0---0----|
D |--0---0---0---0---0-----0---0----|--0---0---0---0------0---0---0----|

[Bridge]
G
Run away into water
G
Find the jams of what was over
G
Right through my cap
G
Just as fun as you could tell a thing
G
I went at home and gave my girl a ring.
G
I put the highways at a black time down
G
Turn the ferries into the towns
G
And those hills give away just like a wedding gown
G
I put the highways the black time down.

D |--6---7---7---6---7-----0---0----|-----0---0---3---0---3---0---0----|
A |--0---0---0---0---0-----0---0----|-----0---0---0---0---0---0---0----|
F#|--0---0---0---0---0-----0---0----|-----0---0---0---0---0---0---0----|
D |--0---0---0---0---0-----0---0----|-----0---0---0---0---0---0---0----|
A |--0---0---0---0---0-----0---0----|-----0---0---0---0---0---0---0----|
D |--0---0---0---0---0-----0---0----|-----0---0---0---0---0---0---0----|

D |--6---7---7---6---7-----0---0----|-----3---0---3---3---0---0---0----|
A |--0---0---0---0---0-----0---0----|-----0---0---0---0---0---0---0----|
F#|--0---0---0---0---0-----0---0----|-----0---0---0---0---0---0---0----|
D |--0---0---0---0---0-----0---0----|-----0---0---0---0---0---0---0----|
A |--0---0---0---0---0-----0---0----|-----0---0---0---0---0---0---0----|
D |--0---0---0---0---0-----0---0----|-----0---0---0---0---0---0---0----|

D |--6---7---7---6---7-----0---0----|-----0---0---3---0---3---0---0----|
A |--0---0---0---0---0-----0---0----|-----0---0---0---0---0---0---0----|
F#|--0---0---0---0---0-----0---0----|-----0---0---0---0---0---0---0----|
D |--0---0---0---0---0-----0---0----|-----0---0---0---0---0---0---0----|
A |--0---0---0---0---0-----0---0----|-----0---0---0---0---0---0---0----|
D |--0---0---0---0---0-----0---0----|-----0---0---0---0---0---0---0----|

D |--6---7---7---6---7-----0---0----|--5---3---0---0------0---0---0----|
A |--0---0---0---0---0-----0---0----|--0---0---0---0------0---0---0----|
F#|--0---0---0---0---0-----0---0----|--0---0---0---0------0---0---0----|
D |--0---0---0---0---0-----0---0----|--0---0---0---0------0---0---0----|
A |--0---0---0---0---0-----0---0----|--0---0---0---0------0---0---0----|
D |--0---0---0---0---0-----0---0----|--0---0---0---0------0---0---0----|

[Verse]
G
I don't need to see no mirror,
G
I am never to see my own face,
G
Just a reflection of somebody
G
Who's gonna leave without a trace.
G
Roll me over them hills so cold and proud
G
Let the night come in and lay my shroud
G
I never been to Califonia
G
Maybe that's where I should end my days.

[Chorus]
G
Don't let me die in Florida,
G
I don't care about my name.
G
If you catch me dying in Orlando
G
Roll my bed on to a train.
Suggest correction
Creating personal tab
Creating personal tab
You can edit any tab online and save it as your Personal.

You can edit, replace or remove any tab part or add personal notes – all changes will be seen only by you.

Personal tabs can be accessed anytime from any device, even offline.
Learn more »
Give kudos to tab author, rate the tab!
1 2 3 4 5
comments
print report bad tab
guest
You may want to rate the tab now too:
select rating
Wanna post a correction for this tab? Suggest correction