Oops, an error
Loading. Please wait.

Faithful Son intro tab

271 views 1 this week
2 commentsread comments
1 2 3 4 5
1 last vote to show rating
add to favorites
×
Save as Personal and add changes to this tab that will be seen only by you. Learn more ›
×
You can save this tab as Personal to edit and correct it or add notes. All changes will be seen only by you. Learn more »
launch autoscroll
font size
0
reset
how to read this tab
guitar tuner
edit
Autoscroll
slow
fast
+/-
esc
set tempo
stop
Faithful Son by Patty Griffin
Album: American Kid
Track 6
2013

Standard Tuning
Capo on the 6th fret

Listen along to the track for timing. You'll hear that the strings are lightly strummed as well.

INTRO:
Repeat twice
||----------------------------------------|
||--0h3-3/5-5/7/5-0-0h3-------------------|
||----------------------0h2-2/4/2-0-------|
||----------------------------------0h2---|
||----------------------------------------|
||------0---------------------------------|

            
            
Suggest correction
Creating personal tab
Creating personal tab
You can edit any tab online and save it as your Personal.

You can edit, replace or remove any tab part or add personal notes – all changes will be seen only by you.

Personal tabs can be accessed anytime from any device, even offline.
Learn more »
Give kudos to tab author, rate the tab!
1 2 3 4 5
comments
print report bad tab
2 comments total.
0 reply
kgemeinhart 122 Apr 17, 2014 06:48 PM

||----------------------------------------|
||--0h3-3/5-5/7/5-0-0h3-------------------|
||----------------------0h2-2/4/2-0-------|
||----------------------------------0h2---|
||----------------------------------------|
||----------------------------------------|

guest
You may want to rate the tab now too:
select rating
Wanna post a correction for this tab? Suggest correction