Oops, an error
Loading. Please wait.

Rain Tab

13,121 views 6 this week
1 commentread comment
1 2 3 4 5
2 more votes to show rating
add to favorites
launch autoscroll
font size
0
reset
how to read this tab
guitar tuner
Autoscroll
slow
fast
+/-
esc
set tempo
stop
Help us to improve Ultimate-Guitar.com Take our survey!
×
Author
Bb: x1333x
 C: x3555x
Dm: x5776x
 F: x3321x

Chords: Bb, C, Dm, C    ~verse
        Dm, C, Bb, F    ~chorus


TAB:

Intro:
   F        Dm        C       Bb       Dm       C       Bb
e------------------------------------------------------------|
b-----------------------------------1------------------------|
g-------------2----------------------------------------------|
d-----3-3---0---3-3----5--------3--------7-3-3----5-3-3--3---|
a---3----------------3---3-3--1--------5--------3--------1---|
e-1----------------------------------------------------------|

 Dm        F/C?    Bb Dm     C    Bb
--------------------------------------------|
-----------------------------------------1--|
-----------------5-----------5--------------|
---7-3-3----5-3--3--3----7-3-3-5-5----5-3---|
-5--------3---------1--5-------3----1-------|
--------------------------------------------|


verse:

                                                  Walls that I won't climb
  Bb       C      Dm      C                         Bb               C
-------------------------------------------|        ---------------------|
-------------------------------------------|repeted ---------------------|
-------------------------------------------|3X then:-------------------5-|
-3---3-3----5-3-3---7-3-3---5-3-3-3---3-3--|        --3----3--3----5-3-3-|
-1-1------3-------5-------3-------1-1------|        --1--1-------3-------|
-------------------------------------------|        ---------------------|

Play whole verse again, but on the 2nd time, play the whole chords, Bb and C, leading up 
the chorus.

Chorus:

Dm          C       Bb    F
Strange how hard it rains now
Dm      C        Bb        F
Rows and rows of big dark clouds
         Dm      C        Bb          F
When I'm holding on underneath this shroud
Dm     C     Bb
Rain


Bb        C     dm     Bb
--------------------------------|
-----3-------5------6-------3---|
-----3-------5------7-------3---|     X2
---3-3-----5-5----7-7-----3-3---|
-1-------3------5-------1-------|
--------------------------------|

verse

instrumental:
                           1st F : x 3 3 2 1 x
Dm, F, F, Dm, Bb    X2     2nd F : x 8 10 10 x x


Dm, C, Bb, F        x4

chorus
                                                                            Thanks.
----------------------------------------------------------------------------

Lyrics:

It's hard to listen to a hard hard heart
Beating close to mine
Pounding up against the stone and steel
Walls that I won't climb
Sometimes a hurt is so deep deep deep
You think that you're gonna drown
Sometimes all I can do is weep weep weep
With all this rain falling down

Strange how hard it rains now
Rows and rows of big dark clouds
When I'm holding on underneath this shroud
Rain

Its hard to know when to give up the fight
Two things you want will just never be right
Its never rained like it has to night before
Now I don't wanna beg you baby
For something maybe you could never give
I'm not looking for the rest of your life
I just want another chance to live

Strange how hard it rains now
Rows and rows of big dark clouds
When I'm holding on underneath this shroud
Rain

Strange how hard it rains now
Rows and rows of big dark clouds
When I'm holding on underneath this shroud
Rain

Strange how hard it rains now
Rows and rows of big dark clouds
When I'm still alive underneath this shroud
Rain Rain Rain
Suggest correction
Give kudos to tab author, rate the tab!
1 2 3 4 5
comments
print report bad tab
1 comment total.
0 reply
Arzosah 3,575 Nov 24, 2012 03:53 AM

If you'd rather watch a tutorial on video then feel free to check out my lesson on youtube: http://youtu.be/tpD7kyPJuQo . Hope it helps!

guest
You may want to rate the tab now too:
select rating
Wanna post a correction for this tab? Suggest correction