Oops, an error
Loading. Please wait.

Diana Chords

version 1
version 1

Whole song

118,365 views 270 this week
2 commentsread comments
1 2 3 4 5
excellent!
x 15
add to favorites
launch autoscroll
font size
0
reset
transpose
0
reset
display chords
guitar tuner
Autoscroll
slow
fast
+/-
esc
set tempo
stop
Help us to improve Ultimate-Guitar.com Take our survey!
×
Contributor
Difficulty
novice
Title: "Diana" (1957)

Artist: Paul Anka
 
[Intro]
(Saxophone/Lead intro tune)

e|------5/7----7--7--7---------------7---5---------------------------------|
B|----------------------8---10---8-----------------------------------------|
G|-------------------------------------------------------------------------| 
D|-------------------------------------------------------------------------| X2
A|-------------------------------------------------------------------------|
E|-------------------------------------------------------------------------|
 

[Intro]
(Rhythm chords) 

G Em C D


[Verse 1]

G                Em          
I'm so young and you're so old

C                 D 
This, my darling, I've been told

G                 Em  
I don't care just what they say

 C             D   
'Cause forever I will pray

G              Em        
You and I will be as free

C               D 
As the birds up in the trees

G     Em        C          D      G   
Oh... please... stay... by me..., Diana


[Verse]
(Same Chords as 1st verse)

(G Em C D)
Thrills I get when you hold me close
Oh, my darling, you're the most
I love you but do you love me
Oh, Diana, can't you see
I love you with all my heart
And I hope we will never part
Oh, please stay with me, Diana


[Bridge]

C               Cm
Oh, my darlin', oh, my lover

G                  Em    
Tell me that there is no other

C          Cm
I love you with my heart

D          (D)
Oh-oh, oh-oh, oh-oh


[Verse 3] 
(Same Chords as Verse 1 and 2)

(G Em C D)
Only you can take my heart
Only you can tear it apart
When you hold me in your loving arms
I can feel you giving all your charms
Hold me, darling, ho-ho hold me tight
Squeeze me baby with-a all your might


[Outro]

G     Em        C       D           G
Oh... please... stay... with me..., Diana

G   Em   C   D       G
         Oh, please, Diana

G   Em   C   D       G
         Oh, please, Diana

G   Em   C   D       G
         Oh, please, Diana



************************************

| /  Slide up 

************************************
comments
print report bad tab
2 comments total.
0 reply
elliken 17 wrote on February 15 2015, 06:20 am

e|------4/6----6--6--6--4-------------6---4---------------------------------|
B|----------------------6---8---7-----------------------------------------|
G|-------------------------------------------------------------------------|
D|-------------------------------------------------------------------------|
A|-------------------------------------------------------------------------|
E|-------------------------------------------------------------------------|

0 reply
elliken 17 wrote on February 15 2015, 06:21 am

e|------4/6----6--6--6--4-------------6---4---------------------------------|
B|---------------------------6---8---7-----------------------------------------|
G|-------------------------------------------------------------------------|
D|-------------------------------------------------------------------------|
A|-------------------------------------------------------------------------|
E|-------------------------------------------------------------------------|

I want to post or [tab]
guest
You may want to rate the tab now too:
select rating
Please do not post tabs as comments. Select "correction" instead!