Oops, an error
Loading. Please wait.

Puppy Love bass

43 views 1 this week
no commentswrite comment
1 2 3 4 5
3 more votes to show rating
add to favorites
×
Save as Personal and add changes to this tab that will be seen only by you. Learn more ›
×
You can save this tab as Personal to edit and correct it or add notes. All changes will be seen only by you. Learn more »
launch autoscroll
font size
0
reset
guitar tuner
edit
Autoscroll
slow
fast
+/-
esc
set tempo
stop
Author
Difficulty
Tabbed by: 6METAL6BASSIST6
E-mail: petergriffinav@gmail.com

Tuning: EADG

G|------------------------------------------------------------------------------------------------|
D|5-------------------5---6-------------------6---5-----------------------------------------------|
A|----------------5-----------------------6-------------------------------------------------------|
E|------------------------------------------------------------------------------------------------|

0:09

G|------------------------9-----------------------------------------------------------------------|
D|7-------------------10--------------10------7-----------------------4---7-----------4-----------|
A|------------------------------------------------5-------------------------------------------5---|
E|------------------------------------------------------------------------------------------------|

G|--------------------4---7-----------4-----------------------------------4-----------------------|
D|5-------------------------------------------5-----------------------5---------------5-----------|
A|------------------------------------------------7-------------------------------------------7---|
E|------------------------------------------------------------------------------------------------|

0:23

G|------------------------9-----------------------------------------------------------------------|
D|--------------------10--------------10------7-----------------------4---7-------------------4---|
A|------------------------------------------------5-----------------------------------5---7-------|
E|5-----------------------------------------------------------------------------------------------|

G|------------------------------------------------------------------------------------------------|
D|5-------------------5---6-------------------6---5-----------------------------------------------|
A|----------------5-----------------------6-------------------------------------------------------|
E|------------------------------------------------------------------------------------------------|

0:37

G|------------------------9-----------------------------------------------------------------------|
D|7-------------------10--------------10------7-----------------------4---7-----------4-----------|
A|------------------------------------------------5-------------------------------------------5---|
E|------------------------------------------------------------------------------------------------|

G|--------------------4---7-----------4-----------------------------------4-----------------------|
D|5-------------------------------------------5-----------------------5---------------5-----------|
A|------------------------------------------------7-------------------------------------------7---|
E|------------------------------------------------------------------------------------------------|

0:51

G|------------------------9-----------------------------------------------------------------------|
D|--------------------10--------------10------7-----------------------4---7-------------------4---|
A|------------------------------------------------5-----------------------------------5---7-------|
E|5-----------------------------------------------------------------------------------------------|

G|----------------------------------------------------------------4---7-----------2---------------|
D|5-------------------5---6-------------------6---5---------------------------3-------5---3-------|
A|----------------5-----------------------6-------------------------------5-------------------5---|
E|------------------------------------------------------------------------------------------------|

1:06

G|------------------------------------------------------------------------------------------------|
D|------------------------------------------------------------------------------------------------|
A|3---3---3---3-------3---3---3---3---3-------3---3---3---3---3-------3---3---3---3---3-------3---|
E|------------------------------------------------------------------------------------------------|

G|----------------------------------------------------------------4---7-------7---4---------------|
D|5---5---5---5-------5---5---5---5---5-------5---5-----------5-----------5-----------5---3-------|
A|--------------------------------------------------------------------------------------------5---|
E|------------------------------------------------------------------------------------------------|

1:19

G|------------------------------------5-------5---4---4---4---4-------4---4---4---4---4---4---4---|
D|----------------------------2---5---------------------------------------------------------------|
A|3---3---3---3-------3---3-----------------------------------------------------------------------|
E|------------------------------------------------------------------------------------------------|

G|------------------------------------------------------------7---7---7---------------------------|
D|7---7---7---7-----------7---7---7---7-----------------------------------7---7---7---4---4---4---|
A|------------------------------------------------5-------5---------------------------------------|
E|------------------------------------------------------------------------------------------------|

G|------------------------------------------------|
D|------------------------------------------------|
A|5-----------------------------------------------|
E|------------------------------------------------|

1:37

G|------------------------9-----------------------------------------------------------------------|
D|7-------------------10--------------10------7-----------------------4---7-----------4-----------|
A|------------------------------------------------5-------------------------------------------5---|
E|------------------------------------------------------------------------------------------------|

G|--------------------4---7-----------4-----------------------------------4-----------------------|
D|5-------------------------------------------5-----------------------5---------------5-----------|
A|------------------------------------------------7-------------------------------------------7---|
E|------------------------------------------------------------------------------------------------|

1:51

G|------------------------9-----------------------------------------------7-----------5---4-------|
D|--------------------10--------------10------7-----------------------7-----------------------7---|
A|------------------------------------------------5-----------------------------------------------|
E|5-----------------------------------------------------------------------------------------------|

G|----------------4---7---------------7---4-------------------------------------------------------|
D|5-----------------------5-------------------5---------------------------------------------------|
A|------------------------------------------------6-----------------------------------------------|
E|------------------------------------------------------------------------------------------------|

2:05

G|------------------------------------------------------------------------------------------------|
D|------------------------3-------------------------------------------5---8-----------5-----------|
A|--------------------4---------------4-----------6-------------------------------------------6---|
E|6-------------------------------------------6---------------------------------------------------|

G|--------------------------------------------5---------------------------5-----------------------|
D|6-----------------------------------6-----------3-------------------6---------------6-----------|
A|--------------------3---6-------------------------------------------------------------------8---|
E|------------------------------------------------------------------------------------------------|

2:18

G|------------------------------------------------------------------------------------------------|
D|------------------------3-----------8-----------------------------------------------------------|
A|--------------------4-------------------8-------6-----------------------------------------------|
E|6-------------------------------------------6---------------------------------------------------|

G|----------------------------------------------------------------------------|
D|----------------------------------------------------------------------------|
A|----------------------------------------------------------------------------|
E|------------------------------------4-----------5-----------5-----------4---|

            
            
Suggest correction
Creating personal tab
Creating personal tab
You can edit any tab online and save it as your Personal.

You can edit, replace or remove any tab part or add personal notes – all changes will be seen only by you.

Personal tabs can be accessed anytime from any device, even offline.
Learn more »
Give kudos to tab author, rate the tab!
1 2 3 4 5
comments
print report bad tab
guest
You may want to rate the tab now too:
select rating
Wanna post a correction for this tab? Suggest correction