Oops, an error
Loading. Please wait.

Because Of Your Love Chords

version 2
version 2

Whole song

Interactive

10,491 views 12 this week
no commentswrite comment
1 2 3 4 5
excellent!
x 4
add to favorites
launch autoscroll
font size
0
reset
transpose
0
reset
simplify chords
display chords
guitar tuner
Autoscroll
slow
fast
+/-
esc
set tempo
stop
Help us to improve Ultimate-Guitar.com Take our survey!
×
Author
Difficulty
intermediate
Because of Your Love
Words and Music by Paul Baloche & Brenton Brown
Key G   Tempo 126

E|--3--3--3--2--2--3--3--2--2--3--3--2--2--3--3--3--|
B|--3--3--3--3--3--3--3--3--3--3--3--3--3--3--3--3--|
G|--0--0--0--0--0--0--0--0--0--0--0--0--0--0--0--0--|
D|--------------------------------------------------|
A|--------------------------------------------------|
E|--------------------------------------------------|
Intro 
Riff 2X with just snare hits

Yeah           Yeah
G/B Cadd9 D G  G/B Cadd9 D G
Yeah           Yeah
G/B Cadd9 D G  G/B Cadd9 D G


Verse (0:22) - drum rimshot/hat & guitar only first half
      G/B     Cadd9   D   G
As we come in-to Your pre-sence
      G/B    Cadd9  D    G
We re-member eve-ry bles-sing
            G/B    Cadd9  D      G/B    Cadd9
That You’ve poured out so freely from a-bove


(0:38) - bass in here
        G/B   Cadd9    D     G
Lifting grati-tude and prais-es
        G/B     Cadd9  D   G
For com-passion so a-maz-ing
           G/B     Cadd9    D          G/B        Cadd9
Lord we’ve come to give You thanks for all You’ve done


Chorus (0:54)
                G/B   Cadd9  D
Because of Your love
                G/B   Cadd9  D
We’re for-      given
                G/B   Cadd9  D
Because of Your love
                G/B   Cadd9  D
Our hearts are  clean
                G/B   Cadd9  D
We lift You     up
                G/B   Cadd9  D
With songs of   freedom
    C#dim7       Cadd9     D
For-ever we’re   changed


Intro Riff (1:21)
Because of Your love
Riff only with snare hits 1 time

Yeah           Yeah
G/B Cadd9 D G  G/B Cadd9 D G


Verse (1:33) - guitar & drums only
      G/B     Cadd9   D   G
As we come in-to Your pre-sence
      G/B    Cadd9  D    G
We re-member eve-ry bles-sing    (bass in now)
            G/B    Cadd9  D      G/B    Cadd9
That You’ve poured out so freely from a-bove
        G/B   Cadd9    D     G
Lifting grati-tude and prais-es
        G/B     Cadd9  D   G
For com-passion so a-maz-ing
           G/B     Cadd9    D          G/B        Cadd9
Lord we’ve come to give You thanks for all You’ve done



Chorus (2:04)
                G/B   Cadd9  D
Because of Your love
                G/B   Cadd9  D
We’re for-      given
                G/B   Cadd9  D
Because of Your love
                G/B   Cadd9  D
Our hearts are  clean
                G/B   Cadd9  D
We lift You     up
                G/B   Cadd9  D
With songs of   freedom
    C#dim7      Cadd9     D
For-ever we’re  changed



E|---------------------------------------------------------------------1
B|---------------------------------------------------------------------2
G|--4/9--7--9--7--9\4--2--2--4--0--0-----0--2-----2--4-----4--7--------3
D|------------------------------------0--------0--------0--------------4

E|----------------------------------------15----------------------1
B|---------12----------15------------------------------15---------2
G|-------------12--12------14--12--12h14--------14b16------16r14--3
D|--12/14---------------------------------------------------------4
Solo (2:30)
Em D/F# G  Cadd9  G/B C D
Em D/F# G  Cadd9  G/B C D


Chorus (2:45) Acoustic and voice only - audience clapping also on mp3
                G/B   Cadd9  D
Because of Your love
                G/B   Cadd9  D
We’re for-      given
                G/B   Cadd9  D
Because of Your love
                G/B   Cadd9  D
Our hearts are  clean
                G/B   Cadd9  D
We lift You     up
                G/B   Cadd9  D
With songs of   freedom
    C#dim7      Cadd9     D
For-ever we’re   changed
{silent on the  G     here; pretend you're ending the song; retard timing}
Because of your love


Riff (3:15)
               Yeah
G/B Cadd9 D G  G/B Cadd9 D G
Yeah           Yeah
G/B Cadd9 D G  G/B Cadd9 D G
Yeah           Yeah
G/B Cadd9 D G  G/B Cadd9 D G
Yeah           Yeah
G/B Cadd9 D G  G/B Cadd9 D G


end on G

*****
      G/B   Cadd9    D         C#dim7
E|-----3------3------2---------------|
B|-----3------3------3------------5--|
G|-----0------0------2------------4--|
D|-----0------2------0------------5--|
A|-----2------3-------------------4--|
E|-----------------------------------|

Please rate my work. Thanks. Send questions of comments to mark@canhelpyou.com.
www.canhelpyou.com
Suggest correction
comments
print report bad tab
guest
You may want to rate the tab now too:
select rating
Wanna post a correction for this tab? Suggest correction