Oops, an error
Loading. Please wait.

I Miss That Band Tab

13 views 13 this week
no commentswrite comment
1 2 3 4 5
3 more votes to show rating
add to favorites
launch autoscroll
font size
0
reset
how to read this tab
guitar tuner
Autoscroll
slow
fast
+/-
esc
set tempo
stop
Help us to improve Ultimate-Guitar.com Take our survey!
×
Author
Difficulty
About this tab version
Some prefer reading tabs rather than chords so I decided to put a tab up. Was this info helpful? Yes No
Paul Baribeau
I Miss That Band
From self-titled album 


[Verse]
e|-----------------------------------|
B|-----------------------------------|
G|---6--------6--------6--------4----|
D|---7--------7--------9--------7----|
A|---0--------9--------7--------5----|
E|-----------------------------------|


[Chorus]
e|---------------------------------------------------|
B|---------------------------(2)-------5-------------|
G|----6----7----6----------2--------4--------4-------|
D|----7----7----6----9----2--------2--------7--------|
A|----7----5----4----7----5--------2--------7--------|
E|----5----------------7------------------------5----|


[Verse]
e|-----------------------------------|
B|-----------------------------------|
G|---6--------6--------6--------4----|
D|---7--------7--------9--------7----|
A|---0--------9--------7--------5----|
E|-----------------------------------|


[Chorus]
e|---------------------------------------------------|
B|---------------------------(2)-------5-------------|
G|----6----7----6----------2--------4--------4-------|
D|----7----7----6----9----2--------2--------7--------|
A|----7----5----4----7----5--------2--------7--------|
E|----5----------------7------------------------5----|


[Bridge]
e|-----------------------------------|
B|-----------------------------------|
G|---6--------6--------6--------4----|
D|---7--------7--------9--------7----|
A|---0--------9--------7--------5----|
E|-----------------------------------|



************************************

| (n)  Ghost note

************************************
Suggest correction
Give kudos to tab author, rate the tab!
1 2 3 4 5
comments
print report bad tab
guest
You may want to rate the tab now too:
select rating
Wanna post a correction for this tab? Suggest correction