Oops, an error
Loading. Please wait.

Didnt Even See The Dust Tab

7,062 views 3 this week
no commentswrite comment
1 2 3 4 5
please rate
add to favorites
launch autoscroll
font size
0
reset
how to read this tab
guitar tuner
Autoscroll
slow
fast
+/-
esc
set tempo
stop
Help us to improve Ultimate-Guitar.com Take our survey!
×
Contributor
Difficulty
intermediate
------------------------------------------------------------------------------
                    Didn’t Even See The Dust – Paul Brandt
------------------------------------------------------------------------------
zack_ritch@hotmail.com – If Questions / Corrections
tabbed By; zack_ritch

This Is all the Parts In Order.

Guitar One Does The Chords

Chorus :
E                      
Shotgun, everybody get in for the 
B
Long run, don’t know where were goin’ but the 
A                                  E
Outcome comes with a little bit of trust. 
E
Lets go, following whatever way the 
B
Wind blows flying with our hands out of the 
A                            E
Window we didn’t even see the dust. 

Verse
        A                  E
See how far we get driving straight ahead 
        C#m    A                    E 
Getting lost it didn’t seem to matter much 
       C#m     A          E      C#m
All we had was time and a yellow line 
        A       B                  E
Looking back we didn’t even see the dust

Bridge 3:05                             X7
E|----------------------------------------|
B|----------------------------------------|
G|--------4------2------------------------|
D|-2------4-X16--2-X16--2-----------------|
A|-2-X16--2------0------2-X16-------------|
E|-0--------------------0-----------------|
  Pm     Pm     Pm     Pm

|----------------------------------------|
|----------------------------------------|
|--------4------2------------------------|
|-2------4-X16--2-X16--2~----------------|
|-2-X16--2------0------2~----------------|
|-0--------------------0~----------------|

------------------------------------------------------------------------------

Guitar Two
Intro (Fade In)
|-----------------------|
|-------5~--------------|
|--4~------4~---1~------|
|-----------------------|
|-----------------------|
|-----------------------|

|------------------------5--4------------/5-----/5------|
|--5\0--/5p4p0--------5--------5--0---------4-------2---|
|-----------------/4-----------------4------------------|
|-------------------------------------------------------|
|-------------------------------------------------------|
|-------------------------------------------------------|

Main Riff
|-------------------------------------|
|--/5---------------------------------|
|-----4-2-4-2-1-2-4-2-----------------|
|-------------------------------------|
|-------------------------------------|
|-------------------------------------|

|-------------------------------------|
|--/5--------------------------------|
|------4-2-1-2-4-2-1-----------------|
|----------------------2~------------|
|-------------------------------------|
|-------------------------------------|

|-------------------------------------|
|--/5---------------------------------|
|------4-2-1-2-4-2h4p2\1--------------|
|---------------------------2~/-------|
|-------------------------------------|
|-------------------------------------|

|-------------------7p0-9p0-7p0-7p0-9p0-10p0-11p0-12b~--|
|-0-5p0-7p0-9p0-10p0------------------------------------|
|-------------------------------------------------------|
|-------------------------------------------------------|
|-------------------------------------------------------|
|-------------------------------------------------------|

2:02
|-0h5p4---------------------------------|
|-------5---5p0-4p0-2p0-----------------|
|---------4-------------4br-4-2-1-2-----|
|-----------------------------------2~--|
|---------------------------------------|
|---------------------------------------|

3:07
|-------------------------------------------------------|
|------0--0------0--0------0--0------0--0---------------|
|-4~----------------------------------------------------|
|-------------------------------------------------------|
|-------------------------------------------------------|
|-------------------------------------------------------|
       Pm Pm     Pm Pm     Pm Pm     Pm Pm

Part 3 X2 - 3:24
|------------------------|
|--/5--------------------|
|-----4-2-4-2-1-2-4-2----|
|------------------------|
|------------------------|
|------------------------|

|------------------------|
|--/5--------------------|
|-----4-2-1-2-4-2-1------|
|-------------------2~---|
|------------------------|
|------------------------|

|------------------------|
|--/5--------------------|
|-----4-2-1-2-4-2-1------|
|-------------------2-2~-|
|------------------------|
|------------------------|


|---7---7---7------------|
|--10b~----10b~----------|
|------------------------|
|------------------------|
|------------------------|
|------------------------|

Part 3

4:07
|-------------------------------------------------------|
|-5p0-4p0-0-0-5p0-7p0-0-0-0-0-7p0-9p0-10p0-9p0-10b~-----|
|-------------------------------------------------------|
|-------------------------------------------------------|
|-------------------------------------------------------|
|-------------------------------------------------------|

Part 3

|------------------------|
|--5 (5)br-br(5)b~-------|
|------------------------|
|------------------------|
|------------------------|
|------------------------|

Slide Part 4:26 (Sounds Alright)

|-----0-----0-----0------|
|-4/5---4/5---4/5--------|
|------------------------|
|------------------------|
|------------------------|
|------------------------|

|-5/4/2p0h2/4-2-------2/4-4-------------------------------|
|---------------2/4-4-------5/4----5/4/2/10/14/19h21p19\--|
|-------------------------------4~------------------------|
|---------------------------------------------------------|
|---------------------------------------------------------|
|---------------------------------------------------------|

|----------|
|----------|
|----------|
|--2-------|
|--2-------|
|--0-------|



comments
We did not receive enough feedback on this tab! Please rate:
print report bad tab
1 2 3 4 5
I want to post or [tab]
guest
You may want to rate the tab now too:
select rating
Please do not post tabs as comments. Select "correction" instead!