Oops, an error
Loading. Please wait.

How Long Bass Tab

5,279 views 6 this week
no commentswrite comment
1 2 3 4 5
3 more votes to show rating
add to favorites
launch autoscroll
font size
0
reset
guitar tuner
Autoscroll
slow
fast
+/-
esc
set tempo
stop
Help us to improve Ultimate-Guitar.com Take our survey!
×
Author
Difficulty
novice
How Long
By: Ace
Written by: Paul Carrack

Tabbed By : Kaneperson
e-mail: Kanedude4144@Gmail.com

Tuning:EADG

It's not perfect, but nobody has put this up anywhere else. Listen to the song to 
figure out the timing on the intro as I don't have it quite perfect.

IMPORTANT: I do not mean fret eleven when I use 11 in the tab. This is just 
signifying that the notes are played close together.

-ENJOY!

Intro:
G|--------------------------------------------------------------------------|
D|--------------------------------------------------------------------------|
A|--1--11--11--11--11--11--11--11-1-1---------------------------------------|
E|-------------------------------1-1----------------------------------------|

G|--------------------------------------------------------------------------|
D|--------------------------------------------------------------------------|
A|--1--11--11--11---1--11--11--11-1-1---------------------------------------|
E|-----------------1-------------1-1----------------------------------------|

G|--------------------------------------------------------------------------|
D|--------------------------------------------------------------------------|
A|--1--11--11--11---1--11--11--11---1--11--11--11---1--11--11--1h0-2--------|
E|-----------------1---------------1---------------1------------------------|

Chorus:
G|--------------------------------------------------------------------------|
D|--------------------------------------------------------------------------|
A|--3--3--3h1-------------------------------1-------------------------------|
E|------------3--33--3h2-1--11---11--11h2-3---------------------------------|

G|--------------------------------------------------------------------------|
D|--------------------------------------------------------------------------|
A|--3--3--3h1------1--------------------1-----------------------------------|
E|------------3--3h--1--11--11--11h2-3--------------------------------------|

Verse:
G|--------------------------------------------------------------------------|
D|--------------------------------------------------------------------------|
A|--1--11--1--11---1--11--11--11-1-1----------------------------------------|
E|----------------1-------------1-1-----------------------------------------|

G|--------------------------------------------------------------------------|
D|--------------------------------------------------------------------------|
A|--1--11--11--11--11--11--11--11-1-1---------------------------------------|
E|-------------------------------1-1----------------------------------------|

G|--------------------------------------------------------------------------|
D|--------------------------------------------------------------------------|
A|--1--11--11--11--11--11--11--11-1-1---------------------------------------|
E|-------------------------------1-1----------------------------------------|

Lead In:
G|--------------------------------------------------------------------------|
D|--------------------------------------------------------------------------|
A|--11--11--11--11--11--11--11h0-2------------------------------------------|
E|--------------------------------------------------------------------------|

Chorus:
G|--------------------------------------------------------------------------|
D|--------------------------------------------------------------------------|
A|--3--3--3h1-------------------------------1-------------------------------|
E|------------3--33--3h2-1--11---11--11h2-3---------------------------------|

G|--------------------------------------------------------------------------|
D|--------------------------------------------------------------------------|
A|--3--3--3h1------1--------------------1-----------------------------------|
E|------------3--3h--1--11--11--11h2-3--------------------------------------|

Guitar Solo:
G|--------------------------------------------------------------------------|
D|--------------------------------------------------------------------------|
A|--3--33--3-33--33--33--33--33-3-3-----------------------------------------|
E|-----------------------------3-3------------------------------------------|

G|--------------------------------------------------------------------------|
D|--------------------------------------------------------------------------|
A|--3--33--33--33---3--33--33--33-3-3---------------------------------------|
E|-----------------3-------------3-3----------------------------------------|

G|--------------------------------------------------------------------------|
D|--------------------------------------------------------------------------|
A|--3--33--33--33--33--33--33--33-3-3---------------------------------------|
E|-------------------------------3-3----------------------------------------|

G|--------------------------------------------------------------------------|
D|--------------------------------------------------------------------------|
A|--3--33--33--33--33--33--33--33/6-2---------------------------------------|
E|--------------------------------------------------------------------------|

Verse:
G|--------------------------------------------------------------------------|
D|--------------------------------------------------------------------------|
A|--1--11--11--11---1--11--11--11-1-1---------------------------------------|
E|-----------------1-------------1-1----------------------------------------|

G|--------------------------------------------------------------------------|
D|--------------------------------------------------------------------------|
A|--11--11--11--11--11--11--11-----11---------------------------------------|
E|-----------------------------1-2------------------------------------------|

G|--------------------------------------------------------------------------|
D|--------------------------------------------------------------------------|
A|--11--11--11-1-1--11--11--11--11--11----11--------------------------------|
E|------------1-2---------------------1-2-----------------------------------|

Lead In:
G|--------------------------------------------------------------------------|
D|--------------------------------------------------------------------------|
A|--11--11--11--11--11--11--11h0-2------------------------------------------|
E|--------------------------------------------------------------------------|

Ending Chorus (Play untill song ends):
G|--------------------------------------------------------------------------|
D|--------------------------------------------------------------------------|
A|--3--3--3h1------1--------------------1-----------------------------------|
E|------------3--3h--1--11--11--11h2-3--------------------------------------|


| /  slide up
| \  slide down
| h  hammer-on
| p  pull-off
| ~  vibrato
| +  harmonic
| x  Mute note
=============================================================================
Suggest correction
Give kudos to tab author, rate the tab!
1 2 3 4 5
comments
print report bad tab
guest
You may want to rate the tab now too:
select rating
Wanna post a correction for this tab? Suggest correction